  0
SECTION
  2
HEADER
  9
$ACADVER
  1
AC1009
  9
$INSBASE
 10
0
 20
0
 30
0
  9
$EXTMIN
 10
0
 20
0
  9
$EXTMAX
 10
1485
 20
1050
  9
$LIMMIN
 10
0
 20
0
  9
$LIMMAX
 10
1485
 20
1050
  9
$LTSCALE
 40
5
  0
ENDSEC
  0
SECTION
  2
TABLES
  0
TABLE
  2
LTYPE
 70
     9
  0
LTYPE
  2
CONTINUOUS
 70
    64
  3
実線
 72
    65
 73
     0
 40
0.0
  0
LTYPE
  2
DASHED1
 70
    64
  3
--  --  --  --  --  --  --  --  
 72
    65
 73
     2
 40
2.5
 49
1.25
 49
-1.25
  0
LTYPE
  2
DASHED2
 70
    64
  3
----    ----    ----    ----    
 72
    65
 73
     2
 40
5.0
 49
2.5
 49
-2.5
  0
LTYPE
  2
DASHED3
 70
    64
  3
------  ------  ------  ------  
 72
    65
 73
     2
 40
5.0
 49
3.75
 49
-1.25
  0
LTYPE
  2
CENTER1
 70
    64
  3
----- - ----- - ----- - ----- - 
 72
    65
 73
     4
 40
10.0
 49
6.25
 49
-1.25
 49
1.25
 49
-1.25
  0
LTYPE
  2
CENTER2
 70
    64
  3
----------  --  ----------  --  
 72
    65
 73
     4
 40
20.0
 49
12.5
 49
-2.5
 49
2.5
 49
-2.5
  0
LTYPE
  2
PHANTOM1
 70
    64
  3
--- - - --- - - --- - - --- - - 
 72
    65
 73
     6
 40
10.0
 49
3.25
 49
-1.25
 49
1.25
 49
-1.25
 49
1.25
 49
-1.25
  0
LTYPE
  2
PHANTOM2
 70
    64
  3
--------  -  -  --------  -  -  
 72
    65
 73
     6
 40
20.0
 49
10.0
 49
-2.5
 49
1.25
 49
-2.5
 49
1.25
 49
-2.5
  0
LTYPE
  2
DOT
 70
    64
  3
-   -   -   -   -   -   -   -   
 72
    65
 73
     2
 40
2.5
 49
0.625
 49
-1.875
  0
LTYPE
  2
DUMMY
 70
    64
  3
ダミー
 72
    65
 73
     0
 40
0.0
  0
LTYPE
  2
RAND1
 70
    64
  3
ランダム線1
 72
    65
 73
     4
 40
10.0
 49
1.0
 49
-2.0
 49
3.0
 49
-4.0
  0
LTYPE
  2
RAND2
 70
    64
  3
ランダム線2
 72
    65
 73
     4
 40
14.0
 49
2.0
 49
-3.0
 49
4.0
 49
-5.0
  0
LTYPE
  2
RAND3
 70
    64
  3
ランダム線3
 72
    65
 73
     4
 40
18.0
 49
3.0
 49
-4.0
 49
5.0
 49
-6.0
  0
LTYPE
  2
RAND4
 70
    64
  3
ランダム線4
 72
    65
 73
     4
 40
22.0
 49
4.0
 49
-5.0
 49
6.0
 49
-7.0
  0
LTYPE
  2
RAND5
 70
    64
  3
ランダム線5
 72
    65
 73
     4
 40
26.0
 49
5.0
 49
-6.0
 49
7.0
 49
-8.0
  0
LTYPE
  2
LONG1
 70
    64
  3
----------  --  ----------  --  
 72
    65
 73
     4
 40
40.0
 49
32.5
 49
-2.5
 49
2.5
 49
-2.5
  0
LTYPE
  2
LONG2
 70
    64
  3
--------  -  -  --------  -  -  
 72
    65
 73
     6
 40
40.0
 49
30.0
 49
-2.5
 49
1.25
 49
-2.5
 49
1.25
 49
-2.5
  0
LTYPE
  2
LONG3
 70
    64
  3
+++++++++++++++..+++++++++++++++
 72
    65
 73
     2
 40
40.0
 49
37.5
 49
-2.5
  0
LTYPE
  2
LONG4
 70
    64
  3
+++++++++++++++..+++++++++++++++
 72
    65
 73
     2
 40
80.0
 49
75.0
 49
-5.0
  0
LTYPE
  2
LONG5
 70
    64
  3
----------  --  ----------  --  
 72
    65
 73
     4
 40
60.0
 49
37.5
 49
-7.5
 49
7.5
 49
-7.5
  0
LTYPE
  2
dashed
 70
   64
  3
-------   -------------   ------
 72
   65
 73
    2
 40
7.5
 49
6
 49
-1.5
  0
LTYPE
  2
dashed_spaced
 70
   64
  3
----        --------        ----
 72
   65
 73
    2
 40
12
 49
6
 49
-6
  0
LTYPE
  2
long_dashed_dotted
 70
   64
  3
------------- --- --------------
 72
   65
 73
    4
 40
15.25
 49
12
 49
-1.5
 49
0.25
 49
-1.5
  0
LTYPE
  2
long_dashed_double-dotted
 70
   64
  3
----------- --- --- ------------
 72
   65
 73
    6
 40
17
 49
12
 49
-1.5
 49
0.25
 49
-1.5
 49
0.25
 49
-1.5
  0
LTYPE
  2
long_dashed_triplicate-dotted
 70
   64
  3
--------- --- --- --- ----------
 72
   65
 73
    8
 40
18.75
 49
12
 49
-1.5
 49
0.25
 49
-1.5
 49
0.25
 49
-1.5
 49
0.25
 49
-1.5
  0
LTYPE
  2
dotted
 70
   64
  3
   -       -       -       -    
 72
   65
 73
    2
 40
1.75
 49
0.25
 49
-1.5
  0
LTYPE
  2
chain
 70
   64
  3
-------------- -- --------------
 72
   65
 73
    4
 40
18.5
 49
12
 49
-1.5
 49
3.5
 49
-1.5
  0
LTYPE
  2
chain_double_dash
 70
   64
  3
------------ -- -- -------------
 72
   65
 73
    6
 40
23.5
 49
12
 49
-1.5
 49
3.5
 49
-1.5
 49
3.5
 49
-1.5
  0
LTYPE
  2
dashed_dotted
 70
   64
  3
-----------     -     ----------
 72
   65
 73
    4
 40
9.25
 49
6
 49
-1.5
 49
0.25
 49
-1.5
  0
LTYPE
  2
double-dashed_dotted
 70
   64
  3
------   -----------   -   -----
 72
   65
 73
    6
 40
16.75
 49
6
 49
-1.5
 49
6
 49
-1.5
 49
0.25
 49
-1.5
  0
LTYPE
  2
dashed_double-dotted
 70
   64
  3
---------    -    -    ---------
 72
   65
 73
    6
 40
11
 49
6
 49
-1.5
 49
0.25
 49
-1.5
 49
0.25
 49
-1.5
  0
LTYPE
  2
double-dashed_double-dotted
 70
   64
  3
-----   ---------   -   -   ----
 72
   65
 73
    8
 40
18.5
 49
6
 49
-1.5
 49
6
 49
-1.5
 49
0.25
 49
-1.5
 49
0.25
 49
-1.5
  0
LTYPE
  2
dashed_triplicate-dotted
 70
   64
  3
-------    -    -    -    ------
 72
   65
 73
    8
 40
12.75
 49
6
 49
-1.5
 49
0.25
 49
-1.5
 49
0.25
 49
-1.5
 49
0.25
 49
-1.5
  0
LTYPE
  2
double-dashed_triplicate-dotted
 70
   64
  3
-----  ---------  -  -  -  -----
 72
   65
 73
   10
 40
20.25
 49
6
 49
-1.5
 49
6
 49
-1.5
 49
0.25
 49
-1.5
 49
0.25
 49
-1.5
 49
0.25
 49
-1.5
  0
LTYPE
  2
undefined
 70
   64
  3
--------------------------------
 72
   65
 73
    0
 40
0
  0
LTYPE
  2
CENTER2_17
 70
   64
  3
----------    ----    ----------
 72
   65
 73
    4
 40
28.575000000000002
 49
19.05
 49
-3.1749999999999998
 49
3.1749999999999998
 49
-3.1749999999999998
  0
LTYPE
  2
_
 70
   64
  3
                                
 72
   65
 73
    0
 40
0
  0
LTYPE
  2
__19
 70
   64
  3
                                
 72
   65
 73
    0
 40
0
  0
LTYPE
  2
__20
 70
   64
  3
                                
 72
   65
 73
    0
 40
0
  0
LTYPE
  2
__21
 70
   64
  3
                                
 72
   65
 73
    0
 40
0
  0
LTYPE
  2
__22
 70
   64
  3
                                
 72
   65
 73
    0
 40
0
  0
LTYPE
  2
__23
 70
   64
  3
                                
 72
   65
 73
    0
 40
0
  0
LTYPE
  2
__24
 70
   64
  3
                                
 72
   65
 73
    0
 40
0
  0
LTYPE
  2
__25
 70
   64
  3
                                
 72
   65
 73
    0
 40
0
  0
LTYPE
  2
__26
 70
   64
  3
                                
 72
   65
 73
    0
 40
0
  0
LTYPE
  2
__27
 70
   64
  3
                                
 72
   65
 73
    0
 40
0
  0
LTYPE
  2
__28
 70
   64
  3
                                
 72
   65
 73
    0
 40
0
  0
LTYPE
  2
__29
 70
   64
  3
                                
 72
   65
 73
    0
 40
0
  0
LTYPE
  2
__30
 70
   64
  3
                                
 72
   65
 73
    0
 40
0
  0
LTYPE
  2
__31
 70
   64
  3
                                
 72
   65
 73
    0
 40
0
  0
LTYPE
  2
__32
 70
   64
  3
                                
 72
   65
 73
    0
 40
0
  0
ENDTAB
  0
TABLE
  2
STYLE
  5
3
100
AcDbSymbolTable
 70
     1
  0
STYLE
  5
10
100
AcDbSymbolTableRecord
100
AcDbTextStyleTableRecord
  2
STANDARD
 70
     0
 40
0.0
 41
1.0
 50
0.0
 71
     0
 42
0.2
  3
txt
  4
bigfont.shx
  0
STYLE
  5
26
100
AcDbSymbolTableRecord
100
AcDbTextStyleTableRecord
  2
TATEGAKI
 70
    68
 40
0.0
 41
1.0
 50
0.0
 71
     0
 42
1.0
  3
txt
  4
bigfont.shx
  0
ENDTAB
  0
TABLE
  2
LAYER
 70
    3
  0
LAYER
  2
_0-0_0
 70
   64
 62
    7
  6
CONTINUOUS
  0
LAYER
  2
_0-1__Translation
 70
   64
 62
    7
  6
CONTINUOUS
  0
LAYER
  2
ADD_LINE
 70
   64
 62
    7
  6
CONTINUOUS
  0
ENDTAB
  0
ENDSEC
  0
SECTION
  2
BLOCKS
  0
ENDSEC
  0
SECTION
  2
ENTITIES
  0
CIRCLE
  8
_0-1__Translation
  6
CONTINUOUS
 62
    7
 10
664.6193529694151
 20
633.09610182441201
 40
0.05
  0
CIRCLE
  8
_0-1__Translation
  6
CONTINUOUS
 62
    7
 10
674.6193529694151
 20
434.09609928091191
 40
0.05
  0
CIRCLE
  8
_0-1__Translation
  6
CONTINUOUS
 62
    7
 10
679.6193529694151
 20
623.09609928091197
 40
0.05
  0
CIRCLE
  8
_0-1__Translation
  6
CONTINUOUS
 62
    7
 10
146.286019636415
 20
623.09609928091197
 40
0.05
  0
CIRCLE
  8
_0-1__Translation
  6
CONTINUOUS
 62
    7
 10
639.6193529694151
 20
733.09610182441201
 40
0.05
  0
CIRCLE
  8
_0-1__Translation
  6
CONTINUOUS
 62
    7
 10
186.286019636415
 20
733.09610182441201
 40
0.05
  0
CIRCLE
  8
_0-1__Translation
  6
CONTINUOUS
 62
    7
 10
411.68601949491505
 20
734.76276849091209
 40
0.05
  0
CIRCLE
  8
_0-1__Translation
  6
CONTINUOUS
 62
    7
 10
525.88601949491498
 20
734.76276849091209
 40
0.05
  0
CIRCLE
  8
_0-1__Translation
  6
CONTINUOUS
 62
    7
 10
523.35268644441509
 20
731.09610691091211
 40
0.05
  0
CIRCLE
  8
_0-1__Translation
  6
CONTINUOUS
 62
    7
 10
637.55268644441503
 20
731.09610691091211
 40
0.05
  0
CIRCLE
  8
_0-1__Translation
  6
CONTINUOUS
 62
    7
 10
829.66044890441503
 20
623.09609928091197
 40
0.05
  0
CIRCLE
  8
_0-1__Translation
  6
CONTINUOUS
 62
    7
 10
1029.660448904415
 20
623.09609928091197
 40
0.05
  0
CIRCLE
  8
_0-1__Translation
  6
CONTINUOUS
 62
    7
 10
1020.3271155709149
 20
633.09610182441201
 40
0.05
  0
CIRCLE
  8
_0-1__Translation
  6
CONTINUOUS
 62
    7
 10
1008.660448904415
 20
734.76276849091209
 40
0.05
  0
CIRCLE
  8
_0-1__Translation
  6
CONTINUOUS
 62
    7
 10
264.19866546991522
 20
113.02387059041187
 40
0.05
  0
CIRCLE
  8
_0-1__Translation
  6
CONTINUOUS
 62
    7
 10
689.19866546991499
 20
113.02387059041187
 40
0.05
  0
CIRCLE
  8
_0-1__Translation
  6
CONTINUOUS
 62
    7
 10
238.19865860341508
 20
373.02387059041194
 40
0.05
  0
CIRCLE
  8
_0-1__Translation
  6
CONTINUOUS
 62
    7
 10
204.69866546991497
 20
68.023870590411874
 40
0.05
  0
CIRCLE
  8
_0-1__Translation
  6
CONTINUOUS
 62
    7
 10
238.19865860341508
 20
373.02387059041194
 40
0.05
  0
CIRCLE
  8
_0-1__Translation
  6
CONTINUOUS
 62
    7
 10
715.19865860341508
 20
373.02387059041194
 40
0.05
  0
CIRCLE
  8
_0-1__Translation
  6
CONTINUOUS
 62
    7
 10
254.19865872291518
 20
357.02386677591192
 40
0.05
  0
CIRCLE
  8
_0-1__Translation
  6
CONTINUOUS
 62
    7
 10
699.19867221741515
 20
357.02388585041194
 40
0.05
  0
CIRCLE
  8
_0-1__Translation
  6
CONTINUOUS
 62
    7
 10
264.19866546991522
 20
68.023870590411874
 40
0.05
  0
CIRCLE
  8
_0-1__Translation
  6
CONTINUOUS
 62
    7
 10
319.42991429141505
 20
357.02388585041194
 40
0.05
  0
CIRCLE
  8
_0-1__Translation
  6
CONTINUOUS
 62
    7
 10
204.69866546991497
 20
68.023870590411874
 40
0.05
  0
CIRCLE
  8
_0-1__Translation
  6
CONTINUOUS
 62
    7
 10
237.64865860341507
 20
113.02387059041187
 40
0.05
  0
CIRCLE
  8
_0-1__Translation
  6
CONTINUOUS
 62
    7
 10
257.89866504091497
 20
74.72387059041182
 40
0.05
  0
CIRCLE
  8
_0-1__Translation
  6
CONTINUOUS
 62
    7
 10
234.49866504091517
 20
74.72387059041182
 40
0.05
  0
ARC
  8
_0-0_0
  6
CONTINUOUS
 62
    7
 10
677.95268630291502
 20
618.09609928091197
 40
1.666666666666714
 50
270
 51
0
  0
LINE
  8
_0-0_0
  6
CONTINUOUS
 62
    7
 10
679.6193529694151
 20
618.09609928091197
 11
677.95268630291502
 21
618.09609928091197
  0
LINE
  8
_0-0_0
  6
CONTINUOUS
 62
    7
 10
677.95268630291502
 20
618.09609928091197
 11
677.95268630291502
 21
616.429432614412
  0
LINE
  8
_0-0_0
  6
CONTINUOUS
 62
    7
 10
679.6193529694151
 20
618.09609928091197
 11
679.6193529694151
 21
623.09609928091197
  0
LINE
  8
_0-0_0
  6
CONTINUOUS
 62
    7
 10
679.6193529694151
 20
623.09609928091197
 11
677.95268630291502
 21
623.09609928091197
  0
LINE
  8
_0-0_0
  6
CONTINUOUS
 62
    7
 10
677.95268630291502
 20
623.09609928091197
 11
677.95268630291502
 21
618.09609928091197
  0
ARC
  8
_0-0_0
  6
CONTINUOUS
 62
    7
 10
677.95268630291502
 20
623.09609928091197
 40
1.666666666666714
 50
0
 51
90
  0
LINE
  8
_0-0_0
  6
CONTINUOUS
 62
    7
 10
677.95268630291502
 20
624.76276594791193
 11
677.95268630291502
 21
623.09609928091197
  0
LINE
  8
_0-0_0
  6
CONTINUOUS
 62
    7
 10
677.95268630291502
 20
618.09609928091197
 11
147.95268630291508
 21
618.09609928091197
  0
LINE
  8
_0-0_0
  6
CONTINUOUS
 62
    7
 10
147.95268630291508
 20
616.429432614412
 11
147.95268630291508
 21
618.09609928091197
  0
LINE
  8
_0-0_0
  6
CONTINUOUS
 62
    7
 10
147.95268630291508
 20
616.429432614412
 11
151.286019636415
 21
616.429432614412
  0
LINE
  8
_0-0_0
  6
CONTINUOUS
 62
    7
 10
674.6193529694151
 20
616.429432614412
 11
151.286019636415
 21
616.429432614412
  0
LINE
  8
_0-0_0
  6
CONTINUOUS
 62
    7
 10
674.6193529694151
 20
616.429432614412
 11
677.95268630291502
 21
616.429432614412
  0
LINE
  8
_0-0_0
  6
CONTINUOUS
 62
    7
 10
147.95268630291508
 20
618.09609928091197
 11
146.286019636415
 21
618.09609928091197
  0
ARC
  8
_0-0_0
  6
CONTINUOUS
 62
    7
 10
147.95268630291508
 20
618.09609928091197
 40
1.666666666666714
 50
180
 51
270
  0
LINE
  8
_0-0_0
  6
CONTINUOUS
 62
    7
 10
147.95268630291508
 20
618.09609928091197
 11
147.95268630291508
 21
623.09609928091197
  0
LINE
  8
_0-0_0
  6
CONTINUOUS
 62
    7
 10
147.95268630291508
 20
623.09609928091197
 11
146.286019636415
 21
623.09609928091197
  0
LINE
  8
_0-0_0
  6
CONTINUOUS
 62
    7
 10
146.286019636415
 20
623.09609928091197
 11
146.286019636415
 21
618.09609928091197
  0
LINE
  8
_0-0_0
  6
CONTINUOUS
 62
    7
 10
147.95268630291508
 20
623.09609928091197
 11
147.95268630291508
 21
624.76276594791193
  0
ARC
  8
_0-0_0
  6
CONTINUOUS
 62
    7
 10
147.95268630291508
 20
623.09609928091197
 40
1.666666666666714
 50
90
 51
180
  0
LINE
  8
_0-0_0
  6
CONTINUOUS
 62
    7
 10
147.95268630291508
 20
623.09609928091197
 11
677.95268630291502
 21
623.09609928091197
  0
LINE
  8
_0-0_0
  6
CONTINUOUS
 62
    7
 10
151.286019636415
 20
616.429432614412
 11
151.286019636415
 21
614.76276594791193
  0
LINE
  8
_0-0_0
  6
CONTINUOUS
 62
    7
 10
151.286019636415
 20
614.76276594791193
 11
674.6193529694151
 21
614.76276594791193
  0
LINE
  8
_0-0_0
  6
CONTINUOUS
 62
    7
 10
674.6193529694151
 20
614.76276594791193
 11
674.6193529694151
 21
616.429432614412
  0
ARC
  8
_0-0_0
  6
CONTINUOUS
 62
    7
 10
677.95268630291502
 20
614.76276594791193
 40
1.666666666666714
 50
90
 51
180
  0
LINE
  8
_0-0_0
  6
CONTINUOUS
 62
    7
 10
674.6193529694151
 20
614.76276594791193
 11
676.28601963641494
 21
614.76276594791193
  0
ARC
  8
_0-0_0
  6
CONTINUOUS
 62
    7
 10
147.95268630291508
 20
614.76276594791193
 40
1.666666666666714
 50
0
 51
90
  0
LINE
  8
_0-0_0
  6
CONTINUOUS
 62
    7
 10
149.61935296941518
 20
614.76276594791193
 11
151.286019636415
 21
614.76276594791193
  0
LINE
  8
_0-0_0
  6
CONTINUOUS
 62
    7
 10
676.28601963641494
 20
450.76276594791193
 11
676.28601963641494
 21
614.76276594791193
  0
LINE
  8
_0-0_0
  6
CONTINUOUS
 62
    7
 10
674.6193529694151
 20
614.76276594791193
 11
674.6193529694151
 21
450.76276594791193
  0
LINE
  8
_0-0_0
  6
CONTINUOUS
 62
    7
 10
674.6193529694151
 20
450.76276594791193
 11
676.28601963641494
 21
450.76276594791193
  0
LINE
  8
_0-0_0
  6
CONTINUOUS
 62
    7
 10
151.286019636415
 20
450.76276594791193
 11
151.286019636415
 21
614.76276594791193
  0
LINE
  8
_0-0_0
  6
CONTINUOUS
 62
    7
 10
151.286019636415
 20
450.76276594791193
 11
674.6193529694151
 21
450.76276594791193
  0
LINE
  8
_0-0_0
  6
CONTINUOUS
 62
    7
 10
166.286019636415
 20
466.42943261441189
 11
326.286019636415
 21
466.42943261441189
  0
LINE
  8
_0-0_0
  6
CONTINUOUS
 62
    7
 10
166.286019636415
 20
599.76276594791193
 11
166.286019636415
 21
466.42943261441189
  0
LINE
  8
_0-0_0
  6
CONTINUOUS
 62
    7
 10
326.286019636415
 20
599.76276594791193
 11
166.286019636415
 21
599.76276594791193
  0
LINE
  8
_0-0_0
  6
CONTINUOUS
 62
    7
 10
326.286019636415
 20
466.42943261441189
 11
326.286019636415
 21
599.76276594791193
  0
LINE
  8
_0-0_0
  6
CONTINUOUS
 62
    7
 10
659.6193529694151
 20
466.42943261441189
 11
659.6193529694151
 21
599.76276594791193
  0
LINE
  8
_0-0_0
  6
CONTINUOUS
 62
    7
 10
499.61935296941504
 20
466.42943261441189
 11
659.6193529694151
 21
466.42943261441189
  0
LINE
  8
_0-0_0
  6
CONTINUOUS
 62
    7
 10
499.61935296941504
 20
599.76276594791193
 11
499.61935296941504
 21
466.42943261441189
  0
LINE
  8
_0-0_0
  6
CONTINUOUS
 62
    7
 10
659.6193529694151
 20
599.76276594791193
 11
499.61935296941504
 21
599.76276594791193
  0
LINE
  8
_0-0_0
  6
CONTINUOUS
 62
    7
 10
332.95268630291502
 20
599.76276594791193
 11
332.95268630291502
 21
466.42943261441189
  0
LINE
  8
_0-0_0
  6
CONTINUOUS
 62
    7
 10
492.95268630291502
 20
599.76276594791193
 11
332.95268630291502
 21
599.76276594791193
  0
LINE
  8
_0-0_0
  6
CONTINUOUS
 62
    7
 10
492.95268630291502
 20
466.42943261441189
 11
492.95268630291502
 21
599.76276594791193
  0
LINE
  8
_0-0_0
  6
CONTINUOUS
 62
    7
 10
332.95268630291502
 20
466.42943261441189
 11
492.95268630291502
 21
466.42943261441189
  0
LINE
  8
_0-0_0
  6
CONTINUOUS
 62
    7
 10
677.95268630291502
 20
624.76276594791193
 11
147.95268630291508
 21
624.76276594791193
  0
LINE
  8
_0-0_0
  6
CONTINUOUS
 62
    7
 10
149.61935296941518
 20
614.76276594791193
 11
149.61935296941518
 21
450.76276594791193
  0
LINE
  8
_0-0_0
  6
CONTINUOUS
 62
    7
 10
149.61935296941518
 20
450.76276594791193
 11
151.286019636415
 21
450.76276594791193
  0
LINE
  8
_0-0_0
  6
CONTINUOUS
 62
    7
 10
336.286019636415
 20
596.429432614412
 11
336.286019636415
 21
469.76276594791193
  0
LINE
  8
_0-0_0
  6
CONTINUOUS
 62
    7
 10
336.286019636415
 20
469.76276594791193
 11
489.61935296941504
 21
469.76276594791193
  0
LINE
  8
_0-0_0
  6
CONTINUOUS
 62
    7
 10
489.61935296941504
 20
469.76276594791193
 11
489.61935296941504
 21
596.429432614412
  0
LINE
  8
_0-0_0
  6
CONTINUOUS
 62
    7
 10
489.61935296941504
 20
596.429432614412
 11
336.286019636415
 21
596.429432614412
  0
LINE
  8
_0-0_0
  6
CONTINUOUS
 62
    7
 10
169.61935296941518
 20
469.76276594791193
 11
322.95268630291502
 21
469.76276594791193
  0
LINE
  8
_0-0_0
  6
CONTINUOUS
 62
    7
 10
322.95268630291502
 20
469.76276594791193
 11
322.95268630291502
 21
596.429432614412
  0
LINE
  8
_0-0_0
  6
CONTINUOUS
 62
    7
 10
322.95268630291502
 20
596.429432614412
 11
169.61935296941518
 21
596.429432614412
  0
LINE
  8
_0-0_0
  6
CONTINUOUS
 62
    7
 10
169.61935296941518
 20
596.429432614412
 11
169.61935296941518
 21
469.76276594791193
  0
LINE
  8
_0-0_0
  6
CONTINUOUS
 62
    7
 10
656.28601963641494
 20
469.76276594791193
 11
656.28601963641494
 21
596.429432614412
  0
LINE
  8
_0-0_0
  6
CONTINUOUS
 62
    7
 10
656.28601963641494
 20
596.429432614412
 11
502.95268630291502
 21
596.429432614412
  0
LINE
  8
_0-0_0
  6
CONTINUOUS
 62
    7
 10
502.95268630291502
 20
596.429432614412
 11
502.95268630291502
 21
469.76276594791193
  0
LINE
  8
_0-0_0
  6
CONTINUOUS
 62
    7
 10
502.95268630291502
 20
469.76276594791193
 11
656.28601963641494
 21
469.76276594791193
  0
LINE
  8
_0-0_0
  6
CONTINUOUS
 62
    7
 10
674.6193529694151
 20
450.76276594791193
 11
674.6193529694151
 21
434.09609928091191
  0
LINE
  8
_0-0_0
  6
CONTINUOUS
 62
    7
 10
151.286019636415
 20
450.76276594791193
 11
151.286019636415
 21
434.09609928091191
  0
LINE
  8
_0-0_0
  6
CONTINUOUS
 62
    7
 10
674.6193529694151
 20
434.09609928091191
 11
151.286019636415
 21
434.09609928091191
  0
LINE
  8
_0-0_0
  6
CONTINUOUS
 62
    7
 10
664.6193529694151
 20
624.76276849091198
 11
664.6193529694151
 21
633.09610182441201
  0
LINE
  8
_0-0_0
  6
CONTINUOUS
 62
    7
 10
161.286019636415
 20
633.09610182441201
 11
664.6193529694151
 21
633.09610182441201
  0
LINE
  8
_0-0_0
  6
CONTINUOUS
 62
    7
 10
161.286019636415
 20
624.76276849091198
 11
161.286019636415
 21
633.09610182441201
  0
LINE
  8
_0-0_0
  6
CONTINUOUS
 62
    7
 10
174.61935296941518
 20
634.76276849091198
 11
171.286019636415
 21
634.76276849091198
  0
LINE
  8
_0-0_0
  6
CONTINUOUS
 62
    7
 10
174.61935296941518
 20
634.76276849091198
 11
187.95268284091514
 21
634.76276849091198
  0
LINE
  8
_0-0_0
  6
CONTINUOUS
 62
    7
 10
171.286019636415
 20
634.76276849091198
 11
171.286019636415
 21
633.09610182441201
  0
LINE
  8
_0-0_0
  6
CONTINUOUS
 62
    7
 10
174.61935296941518
 20
633.09610182441201
 11
174.61935296941518
 21
634.76276849091198
  0
LINE
  8
_0-0_0
  6
CONTINUOUS
 62
    7
 10
187.95268630291508
 20
733.09610182441201
 11
187.95268630291508
 21
734.76276849091209
  0
LINE
  8
_0-0_0
  6
CONTINUOUS
 62
    7
 10
187.95268630291508
 20
734.76276849091209
 11
186.286019636415
 21
734.76276849091209
  0
LINE
  8
_0-0_0
  6
CONTINUOUS
 62
    7
 10
186.286019636415
 20
734.76276849091209
 11
186.286019636415
 21
733.09610182441201
  0
LINE
  8
_0-0_0
  6
CONTINUOUS
 62
    7
 10
186.286019636415
 20
733.09610182441201
 11
187.95268630291508
 21
733.09610182441201
  0
LINE
  8
_0-0_0
  6
CONTINUOUS
 62
    7
 10
186.286019636415
 20
634.76276849091198
 11
186.286019636415
 21
733.09610182441201
  0
LINE
  8
_0-0_0
  6
CONTINUOUS
 62
    7
 10
186.286019636415
 20
634.76276849091198
 11
187.95268284091514
 21
634.76276849091198
  0
LINE
  8
_0-0_0
  6
CONTINUOUS
 62
    7
 10
187.95268630291508
 20
635.32943515741192
 11
187.95268630291508
 21
733.09610182441201
  0
LINE
  8
_0-0_0
  6
CONTINUOUS
 62
    7
 10
651.28601963641494
 20
634.76276849091198
 11
637.95268630291502
 21
634.76276849091198
  0
LINE
  8
_0-0_0
  6
CONTINUOUS
 62
    7
 10
651.28601963641494
 20
634.76276849091198
 11
654.6193529694151
 21
634.76276849091198
  0
LINE
  8
_0-0_0
  6
CONTINUOUS
 62
    7
 10
651.28601963641494
 20
633.09610182441201
 11
651.28601963641494
 21
634.76276849091198
  0
LINE
  8
_0-0_0
  6
CONTINUOUS
 62
    7
 10
654.6193529694151
 20
634.76276849091198
 11
654.6193529694151
 21
633.09610182441201
  0
LINE
  8
_0-0_0
  6
CONTINUOUS
 62
    7
 10
637.95268630291502
 20
733.09610182441201
 11
637.95268630291502
 21
734.76276849091209
  0
LINE
  8
_0-0_0
  6
CONTINUOUS
 62
    7
 10
639.6193529694151
 20
733.09610182441201
 11
637.95268630291502
 21
733.09610182441201
  0
LINE
  8
_0-0_0
  6
CONTINUOUS
 62
    7
 10
639.6193529694151
 20
734.76276849091209
 11
639.6193529694151
 21
733.09610182441201
  0
LINE
  8
_0-0_0
  6
CONTINUOUS
 62
    7
 10
637.95268630291502
 20
734.76276849091209
 11
639.6193529694151
 21
734.76276849091209
  0
LINE
  8
_0-0_0
  6
CONTINUOUS
 62
    7
 10
639.6193529694151
 20
634.76276849091198
 11
639.6193529694151
 21
733.09610182441201
  0
LINE
  8
_0-0_0
  6
CONTINUOUS
 62
    7
 10
637.95268630291502
 20
635.32943515741192
 11
637.95268630291502
 21
733.09610182441201
  0
LINE
  8
_0-0_0
  6
CONTINUOUS
 62
    7
 10
639.6193529694151
 20
634.76276849091198
 11
637.95268630291502
 21
634.76276849091198
  0
LINE
  8
_0-0_0
  6
CONTINUOUS
 62
    7
 10
637.95268644441512
 20
635.32943515741192
 11
187.95268284091514
 21
635.32943515741192
  0
LINE
  8
_0-0_0
  6
CONTINUOUS
 62
    7
 10
637.95268644441512
 20
635.32943515741192
 11
637.95268644441512
 21
633.09610182441201
  0
LINE
  8
_0-0_0
  6
CONTINUOUS
 62
    7
 10
187.95268284091514
 20
633.09610182441201
 11
187.95268284091514
 21
635.32943515741192
  0
LINE
  8
_0-0_0
  6
CONTINUOUS
 62
    7
 10
188.35268616141513
 20
648.16276849091195
 11
188.35268616141513
 21
648.49610182441199
  0
LINE
  8
_0-0_0
  6
CONTINUOUS
 62
    7
 10
188.35268616141513
 20
637.0961018244119
 11
188.35268616141513
 21
648.16276849091195
  0
LINE
  8
_0-0_0
  6
CONTINUOUS
 62
    7
 10
188.35268616141513
 20
637.0961018244119
 11
187.95268616141498
 21
637.0961018244119
  0
LINE
  8
_0-0_0
  6
CONTINUOUS
 62
    7
 10
187.95268616141498
 20
648.16276849091195
 11
188.35268616141513
 21
648.16276849091195
  0
LINE
  8
_0-0_0
  6
CONTINUOUS
 62
    7
 10
188.35268616141513
 20
648.49610182441199
 11
187.95268616141498
 21
648.49610182441199
  0
LINE
  8
_0-0_0
  6
CONTINUOUS
 62
    7
 10
302.55268616141506
 20
648.09610182441201
 11
188.35268616141513
 21
648.09610182441201
  0
LINE
  8
_0-0_0
  6
CONTINUOUS
 62
    7
 10
302.55268616141506
 20
647.91850182441191
 11
188.35268616141513
 21
647.91850182441191
  0
LINE
  8
_0-0_0
  6
CONTINUOUS
 62
    7
 10
302.55268616141506
 20
647.28350849091202
 11
188.35268616141513
 21
647.28350849091202
  0
LINE
  8
_0-0_0
  6
CONTINUOUS
 62
    7
 10
302.55268616141506
 20
637.0961018244119
 11
302.55268616141506
 21
635.57536182441185
  0
LINE
  8
_0-0_0
  6
CONTINUOUS
 62
    7
 10
188.35268616141513
 20
635.57536182441185
 11
188.35268616141513
 21
637.0961018244119
  0
LINE
  8
_0-0_0
  6
CONTINUOUS
 62
    7
 10
302.55268616141506
 20
635.57536182441185
 11
188.35268616141513
 21
635.57536182441185
  0
LINE
  8
_0-0_0
  6
CONTINUOUS
 62
    7
 10
302.55268616141506
 20
635.32943515741192
 11
302.55268616141506
 21
635.57536182441185
  0
LINE
  8
_0-0_0
  6
CONTINUOUS
 62
    7
 10
188.35268616141513
 20
635.32943515741192
 11
188.35268616141513
 21
635.57536182441185
  0
LINE
  8
_0-0_0
  6
CONTINUOUS
 62
    7
 10
302.55268616141506
 20
637.0961018244119
 11
302.55268616141506
 21
648.16276849091195
  0
LINE
  8
_0-0_0
  6
CONTINUOUS
 62
    7
 10
302.55268616141506
 20
648.16276849091195
 11
302.55268616141506
 21
648.49610182441199
  0
LINE
  8
_0-0_0
  6
CONTINUOUS
 62
    7
 10
302.95268616141498
 20
635.32943515741192
 11
302.95268616141498
 21
637.0961018244119
  0
LINE
  8
_0-0_0
  6
CONTINUOUS
 62
    7
 10
302.55268616141506
 20
637.0961018244119
 11
302.95268616141498
 21
637.0961018244119
  0
LINE
  8
_0-0_0
  6
CONTINUOUS
 62
    7
 10
302.95268616141498
 20
648.16276849091195
 11
302.55268616141506
 21
648.16276849091195
  0
LINE
  8
_0-0_0
  6
CONTINUOUS
 62
    7
 10
302.95268616141498
 20
637.0961018244119
 11
302.95268616141498
 21
648.16276849091195
  0
LINE
  8
_0-0_0
  6
CONTINUOUS
 62
    7
 10
302.95268616141498
 20
648.49610182441199
 11
302.95268616141498
 21
648.16276849091195
  0
LINE
  8
_0-0_0
  6
CONTINUOUS
 62
    7
 10
302.55268616141506
 20
648.49610182441199
 11
302.95268616141498
 21
648.49610182441199
  0
LINE
  8
_0-0_0
  6
CONTINUOUS
 62
    7
 10
302.95445624091507
 20
635.42943515741194
 11
302.95445624091507
 21
636.76276849091186
  0
LINE
  8
_0-0_0
  6
CONTINUOUS
 62
    7
 10
302.95445624091507
 20
635.42943515741194
 11
302.95268616141498
 21
635.42943515741194
  0
LINE
  8
_0-0_0
  6
CONTINUOUS
 62
    7
 10
302.95445624091507
 20
636.76276849091186
 11
302.95268616141498
 21
636.76276849091186
  0
LINE
  8
_0-0_0
  6
CONTINUOUS
 62
    7
 10
302.95445624091507
 20
638.5961018244119
 11
302.95445624091507
 21
639.92943515741194
  0
LINE
  8
_0-0_0
  6
CONTINUOUS
 62
    7
 10
302.95445624091507
 20
638.5961018244119
 11
302.95268616141498
 21
638.5961018244119
  0
LINE
  8
_0-0_0
  6
CONTINUOUS
 62
    7
 10
302.95445624091507
 20
639.92943515741194
 11
302.95268616141498
 21
639.92943515741194
  0
LINE
  8
_0-0_0
  6
CONTINUOUS
 62
    7
 10
411.28601949491502
 20
648.09610182441201
 11
302.95268616141498
 21
648.09610182441201
  0
LINE
  8
_0-0_0
  6
CONTINUOUS
 62
    7
 10
411.28601949491502
 20
647.91850182441191
 11
302.95268616141498
 21
647.91850182441191
  0
LINE
  8
_0-0_0
  6
CONTINUOUS
 62
    7
 10
411.28601949491502
 20
647.28350849091202
 11
302.95268616141498
 21
647.28350849091202
  0
LINE
  8
_0-0_0
  6
CONTINUOUS
 62
    7
 10
411.28424941491505
 20
635.57536182441185
 11
302.95445624091507
 21
635.57536182441185
  0
LINE
  8
_0-0_0
  6
CONTINUOUS
 62
    7
 10
411.68601949491505
 20
648.16276849091195
 11
411.68601949491505
 21
648.49610182441199
  0
LINE
  8
_0-0_0
  6
CONTINUOUS
 62
    7
 10
411.68601949491505
 20
637.0961018244119
 11
411.68601949491505
 21
648.16276849091195
  0
LINE
  8
_0-0_0
  6
CONTINUOUS
 62
    7
 10
411.28601949491502
 20
635.32943515741192
 11
411.28601949491502
 21
637.0961018244119
  0
LINE
  8
_0-0_0
  6
CONTINUOUS
 62
    7
 10
411.68601949491505
 20
637.0961018244119
 11
411.28601949491502
 21
637.0961018244119
  0
LINE
  8
_0-0_0
  6
CONTINUOUS
 62
    7
 10
411.28601949491502
 20
648.16276849091195
 11
411.68601949491505
 21
648.16276849091195
  0
LINE
  8
_0-0_0
  6
CONTINUOUS
 62
    7
 10
411.28601949491502
 20
637.0961018244119
 11
411.28601949491502
 21
648.16276849091195
  0
LINE
  8
_0-0_0
  6
CONTINUOUS
 62
    7
 10
411.28601949491502
 20
648.49610182441199
 11
411.28601949491502
 21
648.16276849091195
  0
LINE
  8
_0-0_0
  6
CONTINUOUS
 62
    7
 10
411.68601949491505
 20
648.49610182441199
 11
411.28601949491502
 21
648.49610182441199
  0
LINE
  8
_0-0_0
  6
CONTINUOUS
 62
    7
 10
411.28424941491505
 20
635.42943515741194
 11
411.28424941491505
 21
636.76276849091186
  0
LINE
  8
_0-0_0
  6
CONTINUOUS
 62
    7
 10
411.28601949491502
 20
635.42943515741194
 11
411.28424941491505
 21
635.42943515741194
  0
LINE
  8
_0-0_0
  6
CONTINUOUS
 62
    7
 10
411.28601949491502
 20
636.76276849091186
 11
411.28424941491505
 21
636.76276849091186
  0
LINE
  8
_0-0_0
  6
CONTINUOUS
 62
    7
 10
411.28424941491505
 20
638.5961018244119
 11
411.28424941491505
 21
639.92943515741194
  0
LINE
  8
_0-0_0
  6
CONTINUOUS
 62
    7
 10
411.28601949491502
 20
638.5961018244119
 11
411.28424941491505
 21
638.5961018244119
  0
LINE
  8
_0-0_0
  6
CONTINUOUS
 62
    7
 10
411.28601949491502
 20
639.92943515741194
 11
411.28424941491505
 21
639.92943515741194
  0
LINE
  8
_0-0_0
  6
CONTINUOUS
 62
    7
 10
525.88601949491498
 20
648.09610182441201
 11
411.68601949491505
 21
648.09610182441201
  0
LINE
  8
_0-0_0
  6
CONTINUOUS
 62
    7
 10
525.88601949491498
 20
647.91850182441191
 11
411.68601949491505
 21
647.91850182441191
  0
LINE
  8
_0-0_0
  6
CONTINUOUS
 62
    7
 10
525.88601949491498
 20
647.28350849091202
 11
411.68601949491505
 21
647.28350849091202
  0
LINE
  8
_0-0_0
  6
CONTINUOUS
 62
    7
 10
525.88601949491498
 20
637.0961018244119
 11
525.88601949491498
 21
635.57536182441185
  0
LINE
  8
_0-0_0
  6
CONTINUOUS
 62
    7
 10
411.68601949491505
 20
635.57536182441185
 11
411.68601949491505
 21
637.0961018244119
  0
LINE
  8
_0-0_0
  6
CONTINUOUS
 62
    7
 10
525.88601949491498
 20
635.57536182441185
 11
411.68601949491505
 21
635.57536182441185
  0
LINE
  8
_0-0_0
  6
CONTINUOUS
 62
    7
 10
525.88601949491498
 20
635.32943515741192
 11
525.88601949491498
 21
635.57536182441185
  0
LINE
  8
_0-0_0
  6
CONTINUOUS
 62
    7
 10
411.68601949491505
 20
635.32943515741192
 11
411.68601949491505
 21
635.57536182441185
  0
LINE
  8
_0-0_0
  6
CONTINUOUS
 62
    7
 10
525.88601949491498
 20
637.0961018244119
 11
525.88601949491498
 21
648.16276849091195
  0
LINE
  8
_0-0_0
  6
CONTINUOUS
 62
    7
 10
525.88601949491498
 20
648.16276849091195
 11
525.88601949491498
 21
648.49610182441199
  0
LINE
  8
_0-0_0
  6
CONTINUOUS
 62
    7
 10
526.28601949491508
 20
635.32943515741192
 11
526.28601949491508
 21
637.0961018244119
  0
LINE
  8
_0-0_0
  6
CONTINUOUS
 62
    7
 10
525.88601949491498
 20
637.0961018244119
 11
526.28601949491508
 21
637.0961018244119
  0
LINE
  8
_0-0_0
  6
CONTINUOUS
 62
    7
 10
526.28601949491508
 20
648.16276849091195
 11
525.88601949491498
 21
648.16276849091195
  0
LINE
  8
_0-0_0
  6
CONTINUOUS
 62
    7
 10
526.28601949491508
 20
637.0961018244119
 11
526.28601949491508
 21
648.16276849091195
  0
LINE
  8
_0-0_0
  6
CONTINUOUS
 62
    7
 10
526.28601949491508
 20
648.49610182441199
 11
526.28601949491508
 21
648.16276849091195
  0
LINE
  8
_0-0_0
  6
CONTINUOUS
 62
    7
 10
525.88601949491498
 20
648.49610182441199
 11
526.28601949491508
 21
648.49610182441199
  0
LINE
  8
_0-0_0
  6
CONTINUOUS
 62
    7
 10
526.28778957441511
 20
635.42943515741194
 11
526.28778957441511
 21
636.76276849091186
  0
LINE
  8
_0-0_0
  6
CONTINUOUS
 62
    7
 10
526.28778957441511
 20
635.42943515741194
 11
526.28601949491508
 21
635.42943515741194
  0
LINE
  8
_0-0_0
  6
CONTINUOUS
 62
    7
 10
526.28778957441511
 20
636.76276849091186
 11
526.28601949491508
 21
636.76276849091186
  0
LINE
  8
_0-0_0
  6
CONTINUOUS
 62
    7
 10
526.28778957441511
 20
638.5961018244119
 11
526.28778957441511
 21
639.92943515741194
  0
LINE
  8
_0-0_0
  6
CONTINUOUS
 62
    7
 10
526.28778957441511
 20
638.5961018244119
 11
526.28601949491508
 21
638.5961018244119
  0
LINE
  8
_0-0_0
  6
CONTINUOUS
 62
    7
 10
526.28778957441511
 20
639.92943515741194
 11
526.28601949491508
 21
639.92943515741194
  0
LINE
  8
_0-0_0
  6
CONTINUOUS
 62
    7
 10
637.55268644441503
 20
648.09610182441201
 11
526.28601949491508
 21
648.09610182441201
  0
LINE
  8
_0-0_0
  6
CONTINUOUS
 62
    7
 10
637.55268644441503
 20
647.91850182441191
 11
526.28601949491508
 21
647.91850182441191
  0
LINE
  8
_0-0_0
  6
CONTINUOUS
 62
    7
 10
637.55268644441503
 20
647.28350849091202
 11
526.28601949491508
 21
647.28350849091202
  0
LINE
  8
_0-0_0
  6
CONTINUOUS
 62
    7
 10
637.55268644441503
 20
637.0961018244119
 11
637.55268644441503
 21
635.57536182441185
  0
LINE
  8
_0-0_0
  6
CONTINUOUS
 62
    7
 10
637.55268644441503
 20
635.57536182441185
 11
526.28778957441511
 21
635.57536182441185
  0
LINE
  8
_0-0_0
  6
CONTINUOUS
 62
    7
 10
637.55268644441503
 20
635.32943515741192
 11
637.55268644441503
 21
635.57536182441185
  0
LINE
  8
_0-0_0
  6
CONTINUOUS
 62
    7
 10
637.55268644441503
 20
637.0961018244119
 11
637.55268644441503
 21
648.16276849091195
  0
LINE
  8
_0-0_0
  6
CONTINUOUS
 62
    7
 10
637.55268644441503
 20
648.16276849091195
 11
637.55268644441503
 21
648.49610182441199
  0
LINE
  8
_0-0_0
  6
CONTINUOUS
 62
    7
 10
637.55268644441503
 20
637.0961018244119
 11
637.95268644441512
 21
637.0961018244119
  0
LINE
  8
_0-0_0
  6
CONTINUOUS
 62
    7
 10
637.95268644441512
 20
648.16276849091195
 11
637.55268644441503
 21
648.16276849091195
  0
LINE
  8
_0-0_0
  6
CONTINUOUS
 62
    7
 10
637.55268644441503
 20
648.49610182441199
 11
637.95268644441512
 21
648.49610182441199
  0
LINE
  8
_0-0_0
  6
CONTINUOUS
 62
    7
 10
637.55268644441503
 20
729.42943388591197
 11
525.88601949491498
 21
729.42943388591197
  0
LINE
  8
_0-0_0
  6
CONTINUOUS
 62
    7
 10
637.55268644441503
 20
648.49610182441199
 11
637.55268644441503
 21
729.42943388591197
  0
LINE
  8
_0-0_0
  6
CONTINUOUS
 62
    7
 10
302.55268616141506
 20
648.49610182441199
 11
302.55268616141506
 21
733.09610182441201
  0
LINE
  8
_0-0_0
  6
CONTINUOUS
 62
    7
 10
188.35268616141513
 20
733.09610182441201
 11
302.55268616141506
 21
733.09610182441201
  0
LINE
  8
_0-0_0
  6
CONTINUOUS
 62
    7
 10
188.35268616141513
 20
648.49610182441199
 11
188.35268616141513
 21
733.09610182441201
  0
LINE
  8
_0-0_0
  6
CONTINUOUS
 62
    7
 10
411.68601949491505
 20
648.49610182441199
 11
411.68601949491505
 21
733.09610182441201
  0
LINE
  8
_0-0_0
  6
CONTINUOUS
 62
    7
 10
525.88601949491498
 20
648.49610182441199
 11
525.88601949491498
 21
733.09610182441201
  0
LINE
  8
_0-0_0
  6
CONTINUOUS
 62
    7
 10
411.68601949491505
 20
733.09610182441201
 11
525.88601949491498
 21
733.09610182441201
  0
LINE
  8
_0-0_0
  6
CONTINUOUS
 62
    7
 10
411.68601949491505
 20
729.42943515741205
 11
302.55268616141506
 21
729.42943515741205
  0
LINE
  8
_0-0_0
  6
CONTINUOUS
 62
    7
 10
525.88601949491498
 20
729.42944024441203
 11
637.55268644441503
 21
729.42944024441203
  0
LINE
  8
_0-0_0
  6
CONTINUOUS
 62
    7
 10
637.55268644441503
 20
731.09610691091211
 11
525.88601949491498
 21
731.09610691091211
  0
LINE
  8
_0-0_0
  6
CONTINUOUS
 62
    7
 10
637.55268644441503
 20
729.42944024441203
 11
637.55268644441503
 21
731.09610691091211
  0
LINE
  8
_0-0_0
  6
CONTINUOUS
 62
    7
 10
411.68601949491505
 20
733.09610182441201
 11
525.88601949491498
 21
733.09610182441201
  0
LINE
  8
_0-0_0
  6
CONTINUOUS
 62
    7
 10
525.88601949491498
 20
733.09610182441201
 11
525.88601949491498
 21
734.76276849091209
  0
LINE
  8
_0-0_0
  6
CONTINUOUS
 62
    7
 10
525.88601949491498
 20
734.76276849091209
 11
411.68601949491505
 21
734.76276849091209
  0
LINE
  8
_0-0_0
  6
CONTINUOUS
 62
    7
 10
411.68601949491505
 20
734.76276849091209
 11
411.68601949491505
 21
733.09610182441201
  0
LINE
  8
_0-0_0
  6
CONTINUOUS
 62
    7
 10
411.68601949491505
 20
731.09610182441201
 11
302.55268616141506
 21
731.09610182441201
  0
LINE
  8
_0-0_0
  6
CONTINUOUS
 62
    7
 10
188.35268616141513
 20
733.09610182441201
 11
302.55268616141506
 21
733.09610182441201
  0
LINE
  8
_0-0_0
  6
CONTINUOUS
 62
    7
 10
302.55268616141506
 20
733.09610182441201
 11
302.55268616141506
 21
734.76276849091209
  0
LINE
  8
_0-0_0
  6
CONTINUOUS
 62
    7
 10
302.55268616141506
 20
734.76276849091209
 11
188.35268616141513
 21
734.76276849091209
  0
LINE
  8
_0-0_0
  6
CONTINUOUS
 62
    7
 10
188.35268616141513
 20
734.76276849091209
 11
188.35268616141513
 21
733.09610182441201
  0
LINE
  8
_0-0_0
  6
CONTINUOUS
 62
    7
 10
1029.660448905415
 20
618.09609928091197
 11
1027.9937822384149
 21
618.09609928091197
  0
LINE
  8
_0-0_0
  6
CONTINUOUS
 62
    7
 10
1027.9937822384149
 20
618.09609928091197
 11
1027.9937822384149
 21
616.429432614412
  0
ARC
  8
_0-0_0
  6
CONTINUOUS
 62
    7
 10
1027.9937822384149
 20
618.09609928091197
 40
1.666666666666714
 50
270
 51
0
  0
LINE
  8
_0-0_0
  6
CONTINUOUS
 62
    7
 10
1029.660448905415
 20
618.09609928091197
 11
1029.660448905415
 21
623.09609928091197
  0
LINE
  8
_0-0_0
  6
CONTINUOUS
 62
    7
 10
1029.660448905415
 20
623.09609928091197
 11
1027.9937822384149
 21
623.09609928091197
  0
LINE
  8
_0-0_0
  6
CONTINUOUS
 62
    7
 10
1027.9937822384149
 20
623.09609928091197
 11
1027.9937822384149
 21
618.09609928091197
  0
ARC
  8
_0-0_0
  6
CONTINUOUS
 62
    7
 10
1027.9937822384149
 20
623.09609928091197
 40
1.666666666666714
 50
0
 51
90
  0
LINE
  8
_0-0_0
  6
CONTINUOUS
 62
    7
 10
1027.9937822384149
 20
624.76276594791193
 11
1027.9937822384149
 21
623.09609928091197
  0
LINE
  8
_0-0_0
  6
CONTINUOUS
 62
    7
 10
1027.9937822384149
 20
618.09609928091197
 11
831.32711557191498
 21
618.09609928091197
  0
LINE
  8
_0-0_0
  6
CONTINUOUS
 62
    7
 10
831.32711557191498
 20
616.429432614412
 11
831.32711557191498
 21
618.09609928091197
  0
LINE
  8
_0-0_0
  6
CONTINUOUS
 62
    7
 10
831.32711557191498
 20
616.429432614412
 11
834.66044890541513
 21
616.429432614412
  0
LINE
  8
_0-0_0
  6
CONTINUOUS
 62
    7
 10
1024.660448905415
 20
616.429432614412
 11
834.66044890541513
 21
616.429432614412
  0
LINE
  8
_0-0_0
  6
CONTINUOUS
 62
    7
 10
1024.660448905415
 20
616.429432614412
 11
1027.9937822384149
 21
616.429432614412
  0
LINE
  8
_0-0_0
  6
CONTINUOUS
 62
    7
 10
831.32711557191498
 20
618.09609928091197
 11
829.66044890541513
 21
618.09609928091197
  0
ARC
  8
_0-0_0
  6
CONTINUOUS
 62
    7
 10
831.32711557191498
 20
618.09609928091197
 40
1.666666666666714
 50
180
 51
270
  0
LINE
  8
_0-0_0
  6
CONTINUOUS
 62
    7
 10
831.32711557191498
 20
618.09609928091197
 11
831.32711557191498
 21
623.09609928091197
  0
LINE
  8
_0-0_0
  6
CONTINUOUS
 62
    7
 10
831.32711557191498
 20
623.09609928091197
 11
829.66044890541513
 21
623.09609928091197
  0
LINE
  8
_0-0_0
  6
CONTINUOUS
 62
    7
 10
829.66044890541513
 20
623.09609928091197
 11
829.66044890541513
 21
618.09609928091197
  0
LINE
  8
_0-0_0
  6
CONTINUOUS
 62
    7
 10
831.32711557191498
 20
623.09609928091197
 11
831.32711557191498
 21
624.76276594791193
  0
ARC
  8
_0-0_0
  6
CONTINUOUS
 62
    7
 10
831.32711557191498
 20
623.09609928091197
 40
1.666666666666714
 50
90
 51
180
  0
LINE
  8
_0-0_0
  6
CONTINUOUS
 62
    7
 10
831.32711557191498
 20
623.09609928091197
 11
1027.9937822384149
 21
623.09609928091197
  0
ARC
  8
_0-0_0
  6
CONTINUOUS
 62
    7
 10
831.32711557191498
 20
614.76276594791193
 40
1.666666666666714
 50
0
 51
90
  0
LINE
  8
_0-0_0
  6
CONTINUOUS
 62
    7
 10
834.66044890541513
 20
614.76276594791193
 11
834.66044890541513
 21
616.429432614412
  0
LINE
  8
_0-0_0
  6
CONTINUOUS
 62
    7
 10
832.99378223841495
 20
614.76276594791193
 11
834.66044890541513
 21
614.76276594791193
  0
LINE
  8
_0-0_0
  6
CONTINUOUS
 62
    7
 10
1024.660448905415
 20
614.76276594791193
 11
1024.660448905415
 21
616.429432614412
  0
LINE
  8
_0-0_0
  6
CONTINUOUS
 62
    7
 10
834.66044890541513
 20
614.76276594791193
 11
1024.660448905415
 21
614.76276594791193
  0
ARC
  8
_0-0_0
  6
CONTINUOUS
 62
    7
 10
1027.9937822384149
 20
614.76276594791193
 40
1.666666666666714
 50
90
 51
180
  0
LINE
  8
_0-0_0
  6
CONTINUOUS
 62
    7
 10
1024.660448905415
 20
614.76276594791193
 11
1026.3271155719148
 21
614.76276594791193
  0
LINE
  8
_0-0_0
  6
CONTINUOUS
 62
    7
 10
1024.660448905415
 20
614.76276594791193
 11
1024.660448905415
 21
450.76276594791193
  0
LINE
  8
_0-0_0
  6
CONTINUOUS
 62
    7
 10
1024.660448905415
 20
450.76276594791193
 11
1026.3271155719148
 21
450.76276594791193
  0
LINE
  8
_0-0_0
  6
CONTINUOUS
 62
    7
 10
1026.3271155719148
 20
450.76276594791193
 11
1026.3271155719148
 21
614.76276594791193
  0
LINE
  8
_0-0_0
  6
CONTINUOUS
 62
    7
 10
834.66044890541513
 20
450.76276594791193
 11
834.66044890541513
 21
614.76276594791193
  0
LINE
  8
_0-0_0
  6
CONTINUOUS
 62
    7
 10
834.66044890541513
 20
450.76276594791193
 11
1024.660448905415
 21
450.76276594791193
  0
LINE
  8
_0-0_0
  6
CONTINUOUS
 62
    7
 10
849.66044890541513
 20
466.42943261441189
 11
849.66044890541513
 21
599.76276594791193
  0
LINE
  8
_0-0_0
  6
CONTINUOUS
 62
    7
 10
849.66044890541513
 20
599.76276594791193
 11
1009.6604489054151
 21
599.76276594791193
  0
LINE
  8
_0-0_0
  6
CONTINUOUS
 62
    7
 10
1009.6604489054151
 20
599.76276594791193
 11
1009.6604489054151
 21
466.42943261441189
  0
LINE
  8
_0-0_0
  6
CONTINUOUS
 62
    7
 10
1009.6604489054151
 20
466.42943261441189
 11
849.66044890541513
 21
466.42943261441189
  0
LINE
  8
_0-0_0
  6
CONTINUOUS
 62
    7
 10
832.99378223841495
 20
614.76276594791193
 11
832.99378223841495
 21
450.76276594791193
  0
LINE
  8
_0-0_0
  6
CONTINUOUS
 62
    7
 10
832.99378223841495
 20
450.76276594791193
 11
834.66044890541513
 21
450.76276594791193
  0
LINE
  8
_0-0_0
  6
CONTINUOUS
 62
    7
 10
1027.9937822384149
 20
624.76276594791193
 11
831.32711557191498
 21
624.76276594791193
  0
LINE
  8
_0-0_0
  6
CONTINUOUS
 62
    7
 10
852.99378223841495
 20
469.76276594791193
 11
852.99378223841495
 21
596.429432614412
  0
LINE
  8
_0-0_0
  6
CONTINUOUS
 62
    7
 10
852.99378223841495
 20
596.429432614412
 11
1006.3271155719149
 21
596.429432614412
  0
LINE
  8
_0-0_0
  6
CONTINUOUS
 62
    7
 10
1006.3271155719149
 20
596.429432614412
 11
1006.3271155719149
 21
469.76276594791193
  0
LINE
  8
_0-0_0
  6
CONTINUOUS
 62
    7
 10
1006.3271155719149
 20
469.76276594791193
 11
852.99378223841495
 21
469.76276594791193
  0
LINE
  8
_0-0_0
  6
CONTINUOUS
 62
    7
 10
834.66044890541513
 20
450.76276594791193
 11
834.66044890541513
 21
434.09609928091191
  0
LINE
  8
_0-0_0
  6
CONTINUOUS
 62
    7
 10
1024.660448905415
 20
434.09609928091191
 11
834.66044890541513
 21
434.09609928091191
  0
LINE
  8
_0-0_0
  6
CONTINUOUS
 62
    7
 10
1024.660448905415
 20
450.76276594791193
 11
1024.660448905415
 21
434.09609928091191
  0
LINE
  8
_0-0_0
  6
CONTINUOUS
 62
    7
 10
838.99378223841506
 20
624.76276849091198
 11
838.99378223841506
 21
633.09610182441201
  0
LINE
  8
_0-0_0
  6
CONTINUOUS
 62
    7
 10
1020.3271155719151
 20
624.76276849091198
 11
1020.3271155719151
 21
633.09610182441201
  0
LINE
  8
_0-0_0
  6
CONTINUOUS
 62
    7
 10
838.99378223841506
 20
633.09610182441201
 11
1020.3271155719151
 21
633.09610182441201
  0
LINE
  8
_0-0_0
  6
CONTINUOUS
 62
    7
 10
1006.993782238415
 20
634.76276849091198
 11
1010.3271155719151
 21
634.76276849091198
  0
LINE
  8
_0-0_0
  6
CONTINUOUS
 62
    7
 10
1006.993782238415
 20
633.09610182441201
 11
1006.993782238415
 21
634.76276849091198
  0
LINE
  8
_0-0_0
  6
CONTINUOUS
 62
    7
 10
1010.3271155719151
 20
634.76276849091198
 11
1010.3271155719151
 21
633.09610182441201
  0
LINE
  8
_0-0_0
  6
CONTINUOUS
 62
    7
 10
848.99378223841506
 20
634.76276849091198
 11
852.3271155719151
 21
634.76276849091198
  0
LINE
  8
_0-0_0
  6
CONTINUOUS
 62
    7
 10
1006.993782238415
 20
634.76276849091198
 11
852.3271155719151
 21
634.76276849091198
  0
LINE
  8
_0-0_0
  6
CONTINUOUS
 62
    7
 10
848.99378223841506
 20
633.09610182441201
 11
848.99378223841506
 21
634.76276849091198
  0
LINE
  8
_0-0_0
  6
CONTINUOUS
 62
    7
 10
852.3271155719151
 20
634.76276849091198
 11
852.3271155719151
 21
633.09610182441201
  0
ARC
  8
_0-0_0
  6
CONTINUOUS
 62
    7
 10
850.66044890541502
 20
733.09610182441201
 40
1.666666666666714
 50
90
 51
180
  0
LINE
  8
_0-0_0
  6
CONTINUOUS
 62
    7
 10
848.99378223841506
 20
634.76276849091198
 11
848.99378223841506
 21
733.09610182441201
  0
LINE
  8
_0-0_0
  6
CONTINUOUS
 62
    7
 10
1010.3271155719151
 20
634.76276849091198
 11
1010.3271155719151
 21
733.09610182441201
  0
ARC
  8
_0-0_0
  6
CONTINUOUS
 62
    7
 10
1008.660448905415
 20
733.09610182441201
 40
1.666666666666714
 50
0
 51
90
  0
LINE
  8
_0-0_0
  6
CONTINUOUS
 62
    7
 10
1008.660448905415
 20
734.76276849091209
 11
850.66044890541502
 21
734.76276849091209
  0
LINE
  8
_0-0_0
  6
CONTINUOUS
 62
    7
 10
848.99378223841506
 20
635.32943515741192
 11
848.92711542891504
 21
635.32943515741192
  0
LINE
  8
_0-0_0
  6
CONTINUOUS
 62
    7
 10
848.92711542891504
 20
635.32943515741192
 11
848.92711542891504
 21
633.09610182441201
  0
LINE
  8
_0-0_0
  6
CONTINUOUS
 62
    7
 10
1010.3271155719151
 20
635.32943515741192
 11
1010.393782381915
 21
635.32943515741192
  0
LINE
  8
_0-0_0
  6
CONTINUOUS
 62
    7
 10
1010.393782381915
 20
635.32943515741192
 11
1010.393782381915
 21
633.09610182441201
  0
LINE
  8
_0-0_0
  6
CONTINUOUS
 62
    7
 10
850.16044661641501
 20
734.68599977341204
 11
850.16044661641501
 21
734.76276849091209
  0
LINE
  8
_0-0_0
  6
CONTINUOUS
 62
    7
 10
1009.1604466164151
 20
734.76276849091209
 11
1009.1604466164151
 21
734.68600121291206
  0
LINE
  8
_0-0_0
  6
CONTINUOUS
 62
    7
 10
850.16044661641501
 20
734.76276849091209
 11
850.66044890541502
 21
734.76276849091209
  0
LINE
  8
_0-0_0
  6
CONTINUOUS
 62
    7
 10
1008.660448905415
 20
734.76276849091209
 11
1009.1604466164151
 21
734.76276849091209
  0
LINE
  8
_0-0_0
  6
CONTINUOUS
 62
    7
 10
1324.9680370809026
 20
784.62098867490988
 11
1324.9680370809026
 21
784.62098867490988
  0
LINE
  8
_0-0_0
  6
CONTINUOUS
 62
    7
 10
1324.9680370809026
 20
784.62098867490988
 11
1325.0614081334879
 21
784.68506785116971
  0
LINE
  8
_0-0_0
  6
CONTINUOUS
 62
    7
 10
1325.0614081334879
 20
784.68506785116971
 11
1325.1340379191108
 21
784.75751037717873
  0
LINE
  8
_0-0_0
  6
CONTINUOUS
 62
    7
 10
1325.1340379191108
 20
784.75751037717873
 11
1325.1837196184878
 21
784.83611512344168
  0
LINE
  8
_0-0_0
  6
CONTINUOUS
 62
    7
 10
1325.1837196184878
 20
784.83611512344168
 11
1325.2089436783235
 21
784.9184937245194
  0
LINE
  8
_0-0_0
  6
CONTINUOUS
 62
    7
 10
1325.2089436783235
 20
784.9184937245194
 11
1325.2121147632469
 21
784.96031843641128
  0
LINE
  8
_0-0_0
  6
CONTINUOUS
 62
    7
 10
1324.7946416062357
 20
784.2381655729572
 11
1324.7946416062357
 21
784.2381655729572
  0
LINE
  8
_0-0_0
  6
CONTINUOUS
 62
    7
 10
1324.7946416062357
 20
784.2381655729572
 11
1324.860816938117
 21
784.29088274494404
  0
LINE
  8
_0-0_0
  6
CONTINUOUS
 62
    7
 10
1324.860816938117
 20
784.29088274494404
 11
1324.9123458650033
 21
784.36394038166542
  0
LINE
  8
_0-0_0
  6
CONTINUOUS
 62
    7
 10
1324.9123458650033
 20
784.36394038166542
 11
1324.9476627065262
 21
784.45511866379831
  0
LINE
  8
_0-0_0
  6
CONTINUOUS
 62
    7
 10
1324.9476627065262
 20
784.45511866379831
 11
1324.965694378327
 21
784.56164718537877
  0
LINE
  8
_0-0_0
  6
CONTINUOUS
 62
    7
 10
1324.965694378327
 20
784.56164718537877
 11
1324.9680370808962
 21
784.62098867491317
  0
LINE
  8
_0-0_0
  6
CONTINUOUS
 62
    7
 10
1324.968037080903
 20
786.66485648691082
 11
1324.968037080903
 21
786.66485648691082
  0
LINE
  8
_0-0_0
  6
CONTINUOUS
 62
    7
 10
1324.968037080903
 20
786.66485648691082
 11
1325.0614081334883
 21
786.728935663171
  0
LINE
  8
_0-0_0
  6
CONTINUOUS
 62
    7
 10
1325.0614081334883
 20
786.728935663171
 11
1325.1340379191115
 21
786.80137818918012
  0
LINE
  8
_0-0_0
  6
CONTINUOUS
 62
    7
 10
1325.1340379191115
 20
786.80137818918012
 11
1325.1837196184885
 21
786.8799829354433
  0
LINE
  8
_0-0_0
  6
CONTINUOUS
 62
    7
 10
1325.1837196184885
 20
786.8799829354433
 11
1325.2089436783239
 21
786.96236153652102
  0
LINE
  8
_0-0_0
  6
CONTINUOUS
 62
    7
 10
1325.2089436783239
 20
786.96236153652102
 11
1325.2121147632476
 21
787.0041862484129
  0
LINE
  8
_0-0_0
  6
CONTINUOUS
 62
    7
 10
1324.9680370809151
 20
786.66485648691173
 11
1324.9680370809151
 21
784.62098867491181
  0
LINE
  8
_0-0_0
  6
CONTINUOUS
 62
    7
 10
1324.7946416062359
 20
787.72633911186585
 11
1324.7946416062359
 21
787.72633911186585
  0
LINE
  8
_0-0_0
  6
CONTINUOUS
 62
    7
 10
1324.7946416062359
 20
787.72633911186585
 11
1324.7158305733325
 21
787.75711403452373
  0
LINE
  8
_0-0_0
  6
CONTINUOUS
 62
    7
 10
1324.7158305733325
 20
787.75711403452373
 11
1324.6267784727615
 21
787.76501162740044
  0
LINE
  8
_0-0_0
  6
CONTINUOUS
 62
    7
 10
1324.6267784727615
 20
787.76501162740044
 11
1324.5301911075362
 21
787.74979192613272
  0
LINE
  8
_0-0_0
  6
CONTINUOUS
 62
    7
 10
1324.5301911075362
 20
787.74979192613272
 11
1324.429003235873
 21
787.71191737364222
  0
LINE
  8
_0-0_0
  6
CONTINUOUS
 62
    7
 10
1324.429003235873
 20
787.71191737364222
 11
1324.3787814299232
 21
787.6854755191091
  0
LINE
  8
_0-0_0
  6
CONTINUOUS
 62
    7
 10
1324.9680370808957
 20
786.66485648691343
 11
1324.9680370808957
 21
786.66485648691343
  0
LINE
  8
_0-0_0
  6
CONTINUOUS
 62
    7
 10
1324.9680370808957
 20
786.66485648691343
 11
1324.9590849635058
 21
786.78831630878107
  0
LINE
  8
_0-0_0
  6
CONTINUOUS
 62
    7
 10
1324.9590849635058
 20
786.78831630878107
 11
1324.9325006168953
 21
786.9183352295289
  0
LINE
  8
_0-0_0
  6
CONTINUOUS
 62
    7
 10
1324.9325006168953
 20
786.9183352295289
 11
1324.8890917929841
 21
787.05096269004286
  0
LINE
  8
_0-0_0
  6
CONTINUOUS
 62
    7
 10
1324.8890917929841
 20
787.05096269004286
 11
1324.8301774469202
 21
787.18216887204778
  0
LINE
  8
_0-0_0
  6
CONTINUOUS
 62
    7
 10
1324.8301774469202
 20
787.18216887204778
 11
1324.7575476612971
 21
787.30796714209714
  0
LINE
  8
_0-0_0
  6
CONTINUOUS
 62
    7
 10
1324.7575476612971
 20
787.30796714209714
 11
1324.6734092553986
 21
787.42453518341244
  0
LINE
  8
_0-0_0
  6
CONTINUOUS
 62
    7
 10
1324.6734092553986
 20
787.42453518341244
 11
1324.5803187321116
 21
787.52833113504459
  0
LINE
  8
_0-0_0
  6
CONTINUOUS
 62
    7
 10
1324.5803187321116
 20
787.52833113504459
 11
1324.4811045998801
 21
787.61620120952636
  0
LINE
  8
_0-0_0
  6
CONTINUOUS
 62
    7
 10
1324.4811045998801
 20
787.61620120952636
 11
1324.3787814299071
 21
787.68547551910933
  0
LINE
  8
_0-0_0
  6
CONTINUOUS
 62
    7
 10
1324.3787814299071
 20
787.68547551910933
 11
1324.3787814299071
 21
787.68547551910933
  0
LINE
  8
_0-0_0
  6
CONTINUOUS
 62
    7
 10
1324.9680370809151
 20
784.62098867491181
 11
1255.4358702644151
 21
744.58007681841195
  0
LINE
  8
_0-0_0
  6
CONTINUOUS
 62
    7
 10
1255.2624747897357
 20
744.19725371645768
 11
1255.2624747897357
 21
744.19725371645768
  0
LINE
  8
_0-0_0
  6
CONTINUOUS
 62
    7
 10
1255.2624747897357
 20
744.19725371645768
 11
1255.3286501216171
 21
744.24997088844463
  0
LINE
  8
_0-0_0
  6
CONTINUOUS
 62
    7
 10
1255.3286501216171
 20
744.24997088844463
 11
1255.3801790485033
 21
744.3230285251659
  0
LINE
  8
_0-0_0
  6
CONTINUOUS
 62
    7
 10
1255.3801790485033
 20
744.3230285251659
 11
1255.4154958900262
 21
744.41420680729891
  0
LINE
  8
_0-0_0
  6
CONTINUOUS
 62
    7
 10
1255.4154958900262
 20
744.41420680729891
 11
1255.433527561827
 21
744.52073532887925
  0
LINE
  8
_0-0_0
  6
CONTINUOUS
 62
    7
 10
1255.433527561827
 20
744.52073532887925
 11
1255.435870264396
 21
744.58007681841365
  0
LINE
  8
_0-0_0
  6
CONTINUOUS
 62
    7
 10
1254.2573589624264
 20
744.58007681840945
 11
1254.2573589624264
 21
744.58007681840945
  0
LINE
  8
_0-0_0
  6
CONTINUOUS
 62
    7
 10
1254.2573589624264
 20
744.58007681840945
 11
1254.3686342497894
 21
744.52630800524354
  0
LINE
  8
_0-0_0
  6
CONTINUOUS
 62
    7
 10
1254.3686342497894
 20
744.52630800524354
 11
1254.4944327286314
 21
744.48448329335144
  0
LINE
  8
_0-0_0
  6
CONTINUOUS
 62
    7
 10
1254.4944327286314
 20
744.48448329335144
 11
1254.63093207583
 21
744.45587350543962
  0
LINE
  8
_0-0_0
  6
CONTINUOUS
 62
    7
 10
1254.63093207583
 20
744.45587350543962
 11
1254.7739848277924
 21
744.44134793543662
  0
LINE
  8
_0-0_0
  6
CONTINUOUS
 62
    7
 10
1254.7739848277924
 20
744.44134793543662
 11
1254.9192443990384
 21
744.44134793543673
  0
LINE
  8
_0-0_0
  6
CONTINUOUS
 62
    7
 10
1254.9192443990384
 20
744.44134793543673
 11
1255.0622971510008
 21
744.45587350543985
  0
LINE
  8
_0-0_0
  6
CONTINUOUS
 62
    7
 10
1255.0622971510008
 20
744.45587350543985
 11
1255.1987964981994
 21
744.48448329335167
  0
LINE
  8
_0-0_0
  6
CONTINUOUS
 62
    7
 10
1255.1987964981994
 20
744.48448329335167
 11
1255.3245949770414
 21
744.52630800524389
  0
LINE
  8
_0-0_0
  6
CONTINUOUS
 62
    7
 10
1255.3245949770414
 20
744.52630800524389
 11
1255.4358702644037
 21
744.58007681840956
  0
LINE
  8
_0-0_0
  6
CONTINUOUS
 62
    7
 10
1254.2573589624339
 20
744.58007681841286
 11
1254.2573589624339
 21
744.58007681841286
  0
LINE
  8
_0-0_0
  6
CONTINUOUS
 62
    7
 10
1254.2573589624339
 20
744.58007681841286
 11
1254.2663110798212
 21
744.46692735963915
  0
LINE
  8
_0-0_0
  6
CONTINUOUS
 62
    7
 10
1254.2663110798212
 20
744.46692735963915
 11
1254.2928954264291
 21
744.367526253008
  0
LINE
  8
_0-0_0
  6
CONTINUOUS
 62
    7
 10
1254.2928954264291
 20
744.367526253008
 11
1254.3363042503381
 21
744.28489375084495
  0
LINE
  8
_0-0_0
  6
CONTINUOUS
 62
    7
 10
1254.3363042503381
 20
744.28489375084495
 11
1254.3952185963996
 21
744.22154059991407
  0
LINE
  8
_0-0_0
  6
CONTINUOUS
 62
    7
 10
1254.3952185963996
 20
744.22154059991407
 11
1254.4307544370942
 21
744.19725371645745
  0
LINE
  8
_0-0_0
  6
CONTINUOUS
 62
    7
 10
1255.4358702644151
 20
744.58007681841195
 11
1255.4358702644151
 21
746.62394463091209
  0
LINE
  8
_0-0_0
  6
CONTINUOUS
 62
    7
 10
1254.2573589624262
 20
746.62394463040959
 11
1254.2573589624262
 21
746.62394463040959
  0
LINE
  8
_0-0_0
  6
CONTINUOUS
 62
    7
 10
1254.2573589624262
 20
746.62394463040959
 11
1254.3686342497892
 21
746.57017581724358
  0
LINE
  8
_0-0_0
  6
CONTINUOUS
 62
    7
 10
1254.3686342497892
 20
746.57017581724358
 11
1254.4944327286311
 21
746.52835110535147
  0
LINE
  8
_0-0_0
  6
CONTINUOUS
 62
    7
 10
1254.4944327286311
 20
746.52835110535147
 11
1254.6309320758296
 21
746.49974131743965
  0
LINE
  8
_0-0_0
  6
CONTINUOUS
 62
    7
 10
1254.6309320758296
 20
746.49974131743965
 11
1254.7739848277919
 21
746.48521574743665
  0
LINE
  8
_0-0_0
  6
CONTINUOUS
 62
    7
 10
1254.7739848277919
 20
746.48521574743665
 11
1254.9192443990382
 21
746.48521574743665
  0
LINE
  8
_0-0_0
  6
CONTINUOUS
 62
    7
 10
1254.9192443990382
 20
746.48521574743665
 11
1255.0622971510006
 21
746.49974131743965
  0
LINE
  8
_0-0_0
  6
CONTINUOUS
 62
    7
 10
1255.0622971510006
 20
746.49974131743965
 11
1255.198796498199
 21
746.52835110535147
  0
LINE
  8
_0-0_0
  6
CONTINUOUS
 62
    7
 10
1255.198796498199
 20
746.52835110535147
 11
1255.3245949770409
 21
746.57017581724369
  0
LINE
  8
_0-0_0
  6
CONTINUOUS
 62
    7
 10
1255.3245949770409
 20
746.57017581724369
 11
1255.435870264404
 21
746.62394463040959
  0
LINE
  8
_0-0_0
  6
CONTINUOUS
 62
    7
 10
1255.435870264404
 20
746.62394463040959
 11
1255.435870264404
 21
746.62394463040971
  0
LINE
  8
_0-0_0
  6
CONTINUOUS
 62
    7
 10
1254.2573589624153
 20
746.62394463091209
 11
1254.2573589624153
 21
744.58007681841195
  0
LINE
  8
_0-0_0
  6
CONTINUOUS
 62
    7
 10
1255.435870264396
 20
746.62394463041346
 11
1255.435870264396
 21
746.62394463041346
  0
LINE
  8
_0-0_0
  6
CONTINUOUS
 62
    7
 10
1255.435870264396
 20
746.62394463041346
 11
1255.426918147006
 21
746.7474044522811
  0
LINE
  8
_0-0_0
  6
CONTINUOUS
 62
    7
 10
1255.426918147006
 20
746.7474044522811
 11
1255.4003338003956
 21
746.87742337302893
  0
LINE
  8
_0-0_0
  6
CONTINUOUS
 62
    7
 10
1255.4003338003956
 20
746.87742337302893
 11
1255.3569249764841
 21
747.01005083354277
  0
LINE
  8
_0-0_0
  6
CONTINUOUS
 62
    7
 10
1255.3569249764841
 20
747.01005083354277
 11
1255.2980106304203
 21
747.1412570155478
  0
LINE
  8
_0-0_0
  6
CONTINUOUS
 62
    7
 10
1255.2980106304203
 20
747.1412570155478
 11
1255.2253808447974
 21
747.26705528559705
  0
LINE
  8
_0-0_0
  6
CONTINUOUS
 62
    7
 10
1255.2253808447974
 20
747.26705528559705
 11
1255.1412424388986
 21
747.38362332691235
  0
LINE
  8
_0-0_0
  6
CONTINUOUS
 62
    7
 10
1255.1412424388986
 20
747.38362332691235
 11
1255.0481519156116
 21
747.48741927854439
  0
LINE
  8
_0-0_0
  6
CONTINUOUS
 62
    7
 10
1255.0481519156116
 20
747.48741927854439
 11
1254.9489377833801
 21
747.57528935302627
  0
LINE
  8
_0-0_0
  6
CONTINUOUS
 62
    7
 10
1254.9489377833801
 20
747.57528935302627
 11
1254.8466146134071
 21
747.64456366260924
  0
LINE
  8
_0-0_0
  6
CONTINUOUS
 62
    7
 10
1254.8466146134071
 20
747.64456366260924
 11
1254.8466146134069
 21
747.64456366260935
  0
LINE
  8
_0-0_0
  6
CONTINUOUS
 62
    7
 10
1254.8466146134228
 20
747.64456366260935
 11
1254.8466146134228
 21
747.64456366260935
  0
LINE
  8
_0-0_0
  6
CONTINUOUS
 62
    7
 10
1254.8466146134228
 20
747.64456366260935
 11
1254.74429144345
 21
747.57528935302639
  0
LINE
  8
_0-0_0
  6
CONTINUOUS
 62
    7
 10
1254.74429144345
 20
747.57528935302639
 11
1254.6450773112185
 21
747.4874192785445
  0
LINE
  8
_0-0_0
  6
CONTINUOUS
 62
    7
 10
1254.6450773112185
 20
747.4874192785445
 11
1254.5519867879315
 21
747.38362332691247
  0
LINE
  8
_0-0_0
  6
CONTINUOUS
 62
    7
 10
1254.5519867879315
 20
747.38362332691247
 11
1254.467848382033
 21
747.26705528559716
  0
LINE
  8
_0-0_0
  6
CONTINUOUS
 62
    7
 10
1254.467848382033
 20
747.26705528559716
 11
1254.3952185964099
 21
747.1412570155478
  0
LINE
  8
_0-0_0
  6
CONTINUOUS
 62
    7
 10
1254.3952185964099
 20
747.1412570155478
 11
1254.3363042503463
 21
747.01005083354289
  0
LINE
  8
_0-0_0
  6
CONTINUOUS
 62
    7
 10
1254.3363042503463
 20
747.01005083354289
 11
1254.2928954264348
 21
746.87742337302893
  0
LINE
  8
_0-0_0
  6
CONTINUOUS
 62
    7
 10
1254.2928954264348
 20
746.87742337302893
 11
1254.2663110798246
 21
746.7474044522811
  0
LINE
  8
_0-0_0
  6
CONTINUOUS
 62
    7
 10
1254.2663110798246
 20
746.7474044522811
 11
1254.2573589624346
 21
746.62394463041346
  0
LINE
  8
_0-0_0
  6
CONTINUOUS
 62
    7
 10
1254.2573589624346
 20
746.62394463041346
 11
1254.2573589624346
 21
746.62394463041323
  0
LINE
  8
_0-0_0
  6
CONTINUOUS
 62
    7
 10
1255.4358702644151
 20
746.62394463091209
 11
1324.9680370809151
 21
786.66485648691173
  0
LINE
  8
_0-0_0
  6
CONTINUOUS
 62
    7
 10
1254.2573589624153
 20
744.58007681841195
 11
1066.8740619479151
 21
852.48694097341194
  0
LINE
  8
_0-0_0
  6
CONTINUOUS
 62
    7
 10
1066.8740619479347
 20
852.48694097341376
 11
1066.8740619479347
 21
852.48694097341376
  0
LINE
  8
_0-0_0
  6
CONTINUOUS
 62
    7
 10
1066.8740619479347
 20
852.48694097341376
 11
1066.8830140653219
 21
852.37379151463994
  0
LINE
  8
_0-0_0
  6
CONTINUOUS
 62
    7
 10
1066.8830140653219
 20
852.37379151463994
 11
1066.9095984119296
 21
852.27439040800868
  0
LINE
  8
_0-0_0
  6
CONTINUOUS
 62
    7
 10
1066.9095984119296
 20
852.27439040800868
 11
1066.9530072358386
 21
852.1917579058454
  0
LINE
  8
_0-0_0
  6
CONTINUOUS
 62
    7
 10
1066.9530072358386
 20
852.1917579058454
 11
1067.0119215818999
 21
852.12840475491441
  0
LINE
  8
_0-0_0
  6
CONTINUOUS
 62
    7
 10
1067.0119215818999
 20
852.12840475491441
 11
1067.0474574225954
 21
852.1041178714571
  0
LINE
  8
_0-0_0
  6
CONTINUOUS
 62
    7
 10
1066.6299842655816
 20
852.82627073491232
 11
1066.6299842655816
 21
852.82627073491232
  0
LINE
  8
_0-0_0
  6
CONTINUOUS
 62
    7
 10
1066.6299842655816
 20
852.82627073491232
 11
1066.6426444714049
 21
852.74293962243984
  0
LINE
  8
_0-0_0
  6
CONTINUOUS
 62
    7
 10
1066.6426444714049
 20
852.74293962243984
 11
1066.6802404149268
 21
852.66214048365236
  0
LINE
  8
_0-0_0
  6
CONTINUOUS
 62
    7
 10
1066.6802404149268
 20
852.66214048365236
 11
1066.7416297624279
 21
852.58632835949549
  0
LINE
  8
_0-0_0
  6
CONTINUOUS
 62
    7
 10
1066.7416297624279
 20
852.58632835949549
 11
1066.8249472296492
 21
852.51780676299904
  0
LINE
  8
_0-0_0
  6
CONTINUOUS
 62
    7
 10
1066.8249472296492
 20
852.51780676299904
 11
1066.8740619479265
 21
852.48694097340967
  0
LINE
  8
_0-0_0
  6
CONTINUOUS
 62
    7
 10
1066.8740619479151
 20
852.48694097341194
 11
1066.8740619479151
 21
854.53080878541186
  0
LINE
  8
_0-0_0
  6
CONTINUOUS
 62
    7
 10
1066.6299842655821
 20
854.87013854691167
 11
1066.6299842655821
 21
854.87013854691167
  0
LINE
  8
_0-0_0
  6
CONTINUOUS
 62
    7
 10
1066.6299842655821
 20
854.87013854691167
 11
1066.6426444714054
 21
854.78680743443931
  0
LINE
  8
_0-0_0
  6
CONTINUOUS
 62
    7
 10
1066.6426444714054
 20
854.78680743443931
 11
1066.6802404149273
 21
854.70600829565182
  0
LINE
  8
_0-0_0
  6
CONTINUOUS
 62
    7
 10
1066.6802404149273
 20
854.70600829565182
 11
1066.7416297624286
 21
854.63019617149507
  0
LINE
  8
_0-0_0
  6
CONTINUOUS
 62
    7
 10
1066.7416297624286
 20
854.63019617149507
 11
1066.8249472296497
 21
854.56167457499861
  0
LINE
  8
_0-0_0
  6
CONTINUOUS
 62
    7
 10
1066.8249472296497
 20
854.56167457499861
 11
1066.8740619479267
 21
854.53080878540947
  0
LINE
  8
_0-0_0
  6
CONTINUOUS
 62
    7
 10
1067.4633175989231
 20
855.55142781760935
 11
1067.4633175989231
 21
855.55142781760935
  0
LINE
  8
_0-0_0
  6
CONTINUOUS
 62
    7
 10
1067.4633175989231
 20
855.55142781760935
 11
1067.3609944289501
 21
855.48215350802638
  0
LINE
  8
_0-0_0
  6
CONTINUOUS
 62
    7
 10
1067.3609944289501
 20
855.48215350802638
 11
1067.2617802967185
 21
855.39428343354461
  0
LINE
  8
_0-0_0
  6
CONTINUOUS
 62
    7
 10
1067.2617802967185
 20
855.39428343354461
 11
1067.1686897734316
 21
855.29048748191246
  0
LINE
  8
_0-0_0
  6
CONTINUOUS
 62
    7
 10
1067.1686897734316
 20
855.29048748191246
 11
1067.084551367533
 21
855.17391944059716
  0
LINE
  8
_0-0_0
  6
CONTINUOUS
 62
    7
 10
1067.084551367533
 20
855.17391944059716
 11
1067.0119215819099
 21
855.04812117054791
  0
LINE
  8
_0-0_0
  6
CONTINUOUS
 62
    7
 10
1067.0119215819099
 20
855.04812117054791
 11
1066.9530072358463
 21
854.91691498854288
  0
LINE
  8
_0-0_0
  6
CONTINUOUS
 62
    7
 10
1066.9530072358463
 20
854.91691498854288
 11
1066.9095984119348
 21
854.78428752802904
  0
LINE
  8
_0-0_0
  6
CONTINUOUS
 62
    7
 10
1066.9095984119348
 20
854.78428752802904
 11
1066.8830140653244
 21
854.65426860728121
  0
LINE
  8
_0-0_0
  6
CONTINUOUS
 62
    7
 10
1066.8830140653244
 20
854.65426860728121
 11
1066.8740619479344
 21
854.53080878541368
  0
LINE
  8
_0-0_0
  6
CONTINUOUS
 62
    7
 10
1067.4633175989072
 20
855.5514278176098
 11
1067.4633175989072
 21
855.5514278176098
  0
LINE
  8
_0-0_0
  6
CONTINUOUS
 62
    7
 10
1067.4633175989072
 20
855.5514278176098
 11
1067.3609944289344
 21
855.60000149745155
  0
LINE
  8
_0-0_0
  6
CONTINUOUS
 62
    7
 10
1067.3609944289344
 20
855.60000149745155
 11
1067.2617802967038
 21
855.62639866086965
  0
LINE
  8
_0-0_0
  6
CONTINUOUS
 62
    7
 10
1067.2617802967038
 20
855.62639866086965
 11
1067.1686897734177
 21
855.62981724341125
  0
LINE
  8
_0-0_0
  6
CONTINUOUS
 62
    7
 10
1067.1686897734177
 20
855.62981724341125
 11
1067.0845513675208
 21
855.61015337317564
  0
LINE
  8
_0-0_0
  6
CONTINUOUS
 62
    7
 10
1067.0845513675208
 20
855.61015337317564
 11
1067.047457422595
 21
855.59229141036666
  0
LINE
  8
_0-0_0
  6
CONTINUOUS
 62
    7
 10
1066.8740619479151
 20
854.53080878541186
 11
1254.2573589624153
 21
746.62394463091209
  0
LINE
  8
_0-0_0
  6
CONTINUOUS
 62
    7
 10
1316.954160227415
 20
791.96103051391196
 11
1324.378781429915
 21
787.68547551891185
  0
LINE
  8
_0-0_0
  6
CONTINUOUS
 62
    7
 10
1067.4633175989151
 20
855.55142781791209
 11
1087.2623074724151
 21
866.95290780391189
  0
LINE
  8
_0-0_0
  6
CONTINUOUS
 62
    7
 10
1322.6110144769152
 20
782.98069833991189
 11
1322.6110144769152
 21
716.219545896412
  0
LINE
  8
_0-0_0
  6
CONTINUOUS
 62
    7
 10
1322.6110144769029
 20
716.21954589641029
 11
1322.6110144769029
 21
716.21954589641029
  0
LINE
  8
_0-0_0
  6
CONTINUOUS
 62
    7
 10
1322.6110144769029
 20
716.21954589641029
 11
1322.7043855294882
 21
716.28362507267024
  0
LINE
  8
_0-0_0
  6
CONTINUOUS
 62
    7
 10
1322.7043855294882
 20
716.28362507267024
 11
1322.7770153151111
 21
716.35606759867937
  0
LINE
  8
_0-0_0
  6
CONTINUOUS
 62
    7
 10
1322.7770153151111
 20
716.35606759867937
 11
1322.8266970144882
 21
716.43467234494232
  0
LINE
  8
_0-0_0
  6
CONTINUOUS
 62
    7
 10
1322.8266970144882
 20
716.43467234494232
 11
1322.8519210743238
 21
716.51705094602004
  0
LINE
  8
_0-0_0
  6
CONTINUOUS
 62
    7
 10
1322.8519210743238
 20
716.51705094602004
 11
1322.8550921592475
 21
716.5588756579126
  0
LINE
  8
_0-0_0
  6
CONTINUOUS
 62
    7
 10
1255.4358702644151
 20
677.53595308591206
 11
1255.4358702644151
 21
744.29710552941196
  0
LINE
  8
_0-0_0
  6
CONTINUOUS
 62
    7
 10
1255.4358702644151
 20
677.53595308591206
 11
1322.6110144769152
 21
716.219545896412
  0
LINE
  8
_0-0_0
  6
CONTINUOUS
 62
    7
 10
1260.7391711234151
 20
686.99404008391195
 11
1260.7391711234151
 21
741.49718174041197
  0
LINE
  8
_0-0_0
  6
CONTINUOUS
 62
    7
 10
1260.7391711234151
 20
741.49718174041197
 11
1317.3077136184151
 21
774.072838843412
  0
LINE
  8
_0-0_0
  6
CONTINUOUS
 62
    7
 10
1317.3077136184151
 20
774.072838843412
 11
1317.3077136184151
 21
719.56969718741208
  0
LINE
  8
_0-0_0
  6
CONTINUOUS
 62
    7
 10
1317.3077136184151
 20
719.56969718741208
 11
1260.7391711234151
 21
686.99404008391195
  0
LINE
  8
_0-0_0
  6
CONTINUOUS
 62
    7
 10
1254.2573589624153
 20
744.29710552941196
 11
1254.2573589624153
 21
677.53595308591206
  0
LINE
  8
_0-0_0
  6
CONTINUOUS
 62
    7
 10
1254.2573589624262
 20
677.53595308590968
 11
1254.2573589624262
 21
677.53595308590968
  0
LINE
  8
_0-0_0
  6
CONTINUOUS
 62
    7
 10
1254.2573589624262
 20
677.53595308590968
 11
1254.3686342497892
 21
677.48218427274377
  0
LINE
  8
_0-0_0
  6
CONTINUOUS
 62
    7
 10
1254.3686342497892
 20
677.48218427274377
 11
1254.4944327286311
 21
677.44035956085156
  0
LINE
  8
_0-0_0
  6
CONTINUOUS
 62
    7
 10
1254.4944327286311
 20
677.44035956085156
 11
1254.6309320758296
 21
677.41174977293974
  0
LINE
  8
_0-0_0
  6
CONTINUOUS
 62
    7
 10
1254.6309320758296
 20
677.41174977293974
 11
1254.7739848277919
 21
677.39722420293674
  0
LINE
  8
_0-0_0
  6
CONTINUOUS
 62
    7
 10
1254.7739848277919
 20
677.39722420293674
 11
1254.9192443990382
 21
677.39722420293674
  0
LINE
  8
_0-0_0
  6
CONTINUOUS
 62
    7
 10
1254.9192443990382
 20
677.39722420293674
 11
1255.0622971510006
 21
677.41174977293974
  0
LINE
  8
_0-0_0
  6
CONTINUOUS
 62
    7
 10
1255.0622971510006
 20
677.41174977293974
 11
1255.198796498199
 21
677.44035956085156
  0
LINE
  8
_0-0_0
  6
CONTINUOUS
 62
    7
 10
1255.198796498199
 20
677.44035956085156
 11
1255.3245949770409
 21
677.48218427274366
  0
LINE
  8
_0-0_0
  6
CONTINUOUS
 62
    7
 10
1255.3245949770409
 20
677.48218427274366
 11
1255.4358702644037
 21
677.53595308590956
  0
LINE
  8
_0-0_0
  6
CONTINUOUS
 62
    7
 10
1069.231084551915
 20
784.0854981949119
 11
1069.231084551915
 21
850.8466506384118
  0
LINE
  8
_0-0_0
  6
CONTINUOUS
 62
    7
 10
1069.231084551915
 20
784.0854981949119
 11
1254.2573589624153
 21
677.53595308591206
  0
LINE
  8
_0-0_0
  6
CONTINUOUS
 62
    7
 10
1074.534385410915
 20
787.43564948641176
 11
1131.102927905915
 21
754.85999238291196
  0
LINE
  8
_0-0_0
  6
CONTINUOUS
 62
    7
 10
1074.534385410915
 20
841.9387911424119
 11
1074.534385410915
 21
787.43564948641176
  0
LINE
  8
_0-0_0
  6
CONTINUOUS
 62
    7
 10
1131.102927905915
 20
809.36313403891188
 11
1074.534385410915
 21
841.9387911424119
  0
LINE
  8
_0-0_0
  6
CONTINUOUS
 62
    7
 10
1131.102927905915
 20
754.85999238291196
 11
1131.102927905915
 21
809.36313403891188
  0
LINE
  8
_0-0_0
  6
CONTINUOUS
 62
    7
 10
1248.9540581034152
 20
686.99404008391195
 11
1248.9540581034152
 21
741.49718174041197
  0
LINE
  8
_0-0_0
  6
CONTINUOUS
 62
    7
 10
1192.385515608415
 20
719.56969718741208
 11
1248.9540581034152
 21
686.99404008391195
  0
LINE
  8
_0-0_0
  6
CONTINUOUS
 62
    7
 10
1192.385515608415
 20
774.072838843412
 11
1192.385515608415
 21
719.56969718741208
  0
LINE
  8
_0-0_0
  6
CONTINUOUS
 62
    7
 10
1248.9540581034152
 20
741.49718174041197
 11
1192.385515608415
 21
774.072838843412
  0
LINE
  8
_0-0_0
  6
CONTINUOUS
 62
    7
 10
1133.4599505099151
 20
808.00581499291183
 11
1133.4599505099151
 21
753.50267333691203
  0
LINE
  8
_0-0_0
  6
CONTINUOUS
 62
    7
 10
1190.0284930044151
 20
775.43015788941204
 11
1133.4599505099151
 21
808.00581499291183
  0
LINE
  8
_0-0_0
  6
CONTINUOUS
 62
    7
 10
1190.0284930044151
 20
720.92701623341201
 11
1190.0284930044151
 21
775.43015788941204
  0
LINE
  8
_0-0_0
  6
CONTINUOUS
 62
    7
 10
1133.4599505099151
 20
753.50267333691203
 11
1190.0284930044151
 21
720.92701623341201
  0
LINE
  8
_0-0_0
  6
CONTINUOUS
 62
    7
 10
1324.378781429915
 20
787.68547551891185
 11
1254.8466146134151
 21
747.64456366291199
  0
LINE
  8
_0-0_0
  6
CONTINUOUS
 62
    7
 10
1254.8466146134151
 20
747.64456366291199
 11
1067.4633175989151
 21
855.55142781791209
  0
LINE
  8
_0-0_0
  6
CONTINUOUS
 62
    7
 10
1068.987006869582
 20
784.42482795641149
 11
1068.987006869582
 21
784.42482795641149
  0
LINE
  8
_0-0_0
  6
CONTINUOUS
 62
    7
 10
1068.987006869582
 20
784.42482795641149
 11
1068.9996670754053
 21
784.34149684393923
  0
LINE
  8
_0-0_0
  6
CONTINUOUS
 62
    7
 10
1068.9996670754053
 20
784.34149684393923
 11
1069.0372630189272
 21
784.26069770515175
  0
LINE
  8
_0-0_0
  6
CONTINUOUS
 62
    7
 10
1069.0372630189272
 20
784.26069770515175
 11
1069.0986523664284
 21
784.184885580995
  0
LINE
  8
_0-0_0
  6
CONTINUOUS
 62
    7
 10
1069.0986523664284
 20
784.184885580995
 11
1069.1819698336496
 21
784.11636398449854
  0
LINE
  8
_0-0_0
  6
CONTINUOUS
 62
    7
 10
1069.1819698336496
 20
784.11636398449854
 11
1069.2310845519264
 21
784.08549819490963
  0
LINE
  8
_0-0_0
  6
CONTINUOUS
 62
    7
 10
1135.816973113915
 20
806.64323645141178
 11
1135.816973113915
 21
754.86525187841198
  0
LINE
  8
_0-0_0
  6
CONTINUOUS
 62
    7
 10
1135.816973113915
 20
806.64323645141178
 11
1135.8124065169149
 21
806.65112567491189
  0
LINE
  8
_0-0_0
  6
CONTINUOUS
 62
    7
 10
1135.816973113915
 20
754.86525187841198
 11
1190.0284930044151
 21
723.646913820912
  0
LINE
  8
_0-0_0
  6
CONTINUOUS
 62
    7
 10
1190.0284930044151
 20
775.42489839441202
 11
1135.816973113915
 21
806.64323645141178
  0
LINE
  8
_0-0_0
  6
CONTINUOUS
 62
    7
 10
1076.8914080149149
 20
788.79822802741182
 11
1131.102927905915
 21
757.57988997041195
  0
LINE
  8
_0-0_0
  6
CONTINUOUS
 62
    7
 10
1076.8914080149149
 20
840.57621260091184
 11
1076.8868414184153
 21
840.58410182441184
  0
LINE
  8
_0-0_0
  6
CONTINUOUS
 62
    7
 10
1131.102927905915
 20
809.35787454341175
 11
1076.8914080149149
 21
840.57621260091184
  0
LINE
  8
_0-0_0
  6
CONTINUOUS
 62
    7
 10
1076.8914080149149
 20
840.57621260091184
 11
1076.8914080149149
 21
788.79822802741182
  0
LINE
  8
_0-0_0
  6
CONTINUOUS
 62
    7
 10
1194.7425382124151
 20
772.71026030241205
 11
1194.737971615915
 21
772.71814952591194
  0
LINE
  8
_0-0_0
  6
CONTINUOUS
 62
    7
 10
1248.9540581034152
 20
741.49192224491207
 11
1194.7425382124151
 21
772.71026030241205
  0
LINE
  8
_0-0_0
  6
CONTINUOUS
 62
    7
 10
1194.7425382124151
 20
772.71026030241205
 11
1194.7425382124151
 21
720.93227572891191
  0
LINE
  8
_0-0_0
  6
CONTINUOUS
 62
    7
 10
1194.7425382124151
 20
720.93227572891191
 11
1248.9540581034152
 21
689.71393767141194
  0
LINE
  8
_0-0_0
  6
CONTINUOUS
 62
    7
 10
1260.7391711234151
 20
741.49192224491207
 11
1314.950691014415
 21
772.71026030241205
  0
LINE
  8
_0-0_0
  6
CONTINUOUS
 62
    7
 10
1314.950691014415
 20
772.71026030241205
 11
1314.9552576109149
 21
772.71814952591194
  0
LINE
  8
_0-0_0
  6
CONTINUOUS
 62
    7
 10
1314.950691014415
 20
772.71026030241205
 11
1314.950691014415
 21
720.93227572891191
  0
LINE
  8
_0-0_0
  6
CONTINUOUS
 62
    7
 10
1314.950691014415
 20
720.93227572891191
 11
1260.7391711234151
 21
689.71393767141194
  0
ARC
  8
_0-0_0
  6
CONTINUOUS
 62
    7
 10
1324.378781429915
 20
784.96031843641185
 40
0.8333333333337125
 50
299.9359922625
 51
359.99999999999994
  0
LINE
  8
_0-0_0
  6
CONTINUOUS
 62
    7
 10
1325.212114763415
 20
784.96031843641185
 11
1325.212114763415
 21
787.00418624841188
  0
ARC
  8
_0-0_0
  6
CONTINUOUS
 62
    7
 10
1324.378781429915
 20
787.00418624841188
 40
0.8333333333334824
 50
0
 51
60.064007737499991
  0
LINE
  8
_0-0_0
  6
CONTINUOUS
 62
    7
 10
1255.2624747899151
 20
744.19725371641209
 11
1324.794641606415
 21
784.23816557291183
  0
ARC
  8
_0-0_0
  6
CONTINUOUS
 62
    7
 10
1254.8466146134151
 20
744.91940657991199
 40
0.8333333333335014
 50
240.06400773750002
 51
299.9359922625
  0
LINE
  8
_0-0_0
  6
CONTINUOUS
 62
    7
 10
1067.0474574224149
 20
852.10411787141197
 11
1254.4307544369148
 21
744.19725371641209
  0
ARC
  8
_0-0_0
  6
CONTINUOUS
 62
    7
 10
1067.4633175989151
 20
852.82627073491198
 40
0.8333333333330427
 50
180
 51
240.06400773749996
  0
LINE
  8
_0-0_0
  6
CONTINUOUS
 62
    7
 10
1066.6299842654152
 20
852.82627073491198
 11
1066.6299842654152
 21
854.8701385469119
  0
ARC
  8
_0-0_0
  6
CONTINUOUS
 62
    7
 10
1067.4633175989151
 20
854.8701385469119
 40
0.833333333333428
 50
119.93599226249997
 51
180
  0
LINE
  8
_0-0_0
  6
CONTINUOUS
 62
    7
 10
1324.794641606415
 20
787.72633911191189
 11
1316.954160227415
 21
792.24137205541182
  0
LINE
  8
_0-0_0
  6
CONTINUOUS
 62
    7
 10
1087.2623074724151
 20
867.23324934541187
 11
1067.0474574224149
 21
855.59229141041191
  0
LINE
  8
_0-0_0
  6
CONTINUOUS
 62
    7
 10
1322.8550921594151
 20
783.12125332941172
 11
1322.8550921594151
 21
716.55887565791203
  0
LINE
  8
_0-0_0
  6
CONTINUOUS
 62
    7
 10
1068.9870068694151
 20
850.98720562791186
 11
1068.9870068694151
 21
784.42482795641183
  0
LINE
  8
_0-0_0
  6
CONTINUOUS
 62
    7
 10
1254.8466146134151
 20
677.395398096912
 11
1254.8466146134151
 21
671.06239014041193
  0
LINE
  8
_0-0_0
  6
CONTINUOUS
 62
    7
 10
1322.0217588259151
 20
709.74598295091197
 11
1254.8466146134151
 21
671.06239014041193
  0
LINE
  8
_0-0_0
  6
CONTINUOUS
 62
    7
 10
1322.0217588259151
 20
715.88021613491196
 11
1322.0217588259151
 21
709.74598295091197
  0
LINE
  8
_0-0_0
  6
CONTINUOUS
 62
    7
 10
1069.820340202915
 20
783.74616843341186
 11
1069.820340202915
 21
777.61193524941199
  0
LINE
  8
_0-0_0
  6
CONTINUOUS
 62
    7
 10
1254.8466146134151
 20
671.06239014041193
 11
1069.820340202915
 21
777.61193524941199
  0
LINE
  8
_0-0_0
  6
CONTINUOUS
 62
    7
 10
1074.8879388014149
 20
854.39770766841206
 11
1252.8431453999151
 21
751.92011969741201
  0
LINE
  8
_0-0_0
  6
CONTINUOUS
 62
    7
 10
1252.8431453999151
 20
751.92011969741201
 11
1252.8431453999151
 21
755.3265660509121
  0
LINE
  8
_0-0_0
  6
CONTINUOUS
 62
    7
 10
1074.8879388014149
 20
857.80415402191181
 11
1252.8431453999151
 21
755.3265660509121
  0
LINE
  8
_0-0_0
  6
CONTINUOUS
 62
    7
 10
1074.8879388014149
 20
854.39770766841206
 11
1074.8879388014149
 21
857.80415402191181
  0
LINE
  8
_0-0_0
  6
CONTINUOUS
 62
    7
 10
1087.2623074724151
 20
864.93007901341206
 11
1074.8879388014149
 21
857.80415402191181
  0
LINE
  8
_0-0_0
  6
CONTINUOUS
 62
    7
 10
1316.954160227415
 20
792.24564410141181
 11
1304.579791556915
 21
799.37156909241184
  0
LINE
  8
_0-0_0
  6
CONTINUOUS
 62
    7
 10
1316.954160227415
 20
788.83919774791183
 11
1316.954160227415
 21
792.24564410141181
  0
LINE
  8
_0-0_0
  6
CONTINUOUS
 62
    7
 10
1252.8431453999151
 20
751.92011969741201
 11
1316.954160227415
 21
788.83919774791183
  0
LINE
  8
_0-0_0
  6
CONTINUOUS
 62
    7
 10
1252.8431453999151
 20
755.3265660509121
 11
1316.954160227415
 21
792.24564410141181
  0
LINE
  8
_0-0_0
  6
CONTINUOUS
 62
    7
 10
1087.2623074724151
 20
861.53941114591191
 11
1083.1375179154151
 21
859.16410281541197
  0
LINE
  8
_0-0_0
  6
CONTINUOUS
 62
    7
 10
1083.1375179154372
 20
859.16410281541607
 11
1083.1375179154372
 21
859.16410281541607
  0
LINE
  8
_0-0_0
  6
CONTINUOUS
 62
    7
 10
1083.1375179154372
 20
859.16410281541607
 11
1082.9507758102665
 21
859.03594446289594
  0
LINE
  8
_0-0_0
  6
CONTINUOUS
 62
    7
 10
1082.9507758102665
 20
859.03594446289594
 11
1082.8055162390205
 21
858.89105941087768
  0
LINE
  8
_0-0_0
  6
CONTINUOUS
 62
    7
 10
1082.8055162390205
 20
858.89105941087768
 11
1082.7061528402664
 21
858.73384991835143
  0
LINE
  8
_0-0_0
  6
CONTINUOUS
 62
    7
 10
1082.7061528402664
 20
858.73384991835143
 11
1082.6557047205953
 21
858.56909271619588
  0
LINE
  8
_0-0_0
  6
CONTINUOUS
 62
    7
 10
1082.6557047205953
 20
858.56909271619588
 11
1082.6557047205956
 21
858.40179386862723
  0
LINE
  8
_0-0_0
  6
CONTINUOUS
 62
    7
 10
1082.6557047205956
 20
858.40179386862723
 11
1082.7061528402666
 21
858.23703666647168
  0
LINE
  8
_0-0_0
  6
CONTINUOUS
 62
    7
 10
1082.7061528402666
 20
858.23703666647168
 11
1082.8055162390207
 21
858.07982717394554
  0
LINE
  8
_0-0_0
  6
CONTINUOUS
 62
    7
 10
1082.8055162390207
 20
858.07982717394554
 11
1082.950775810267
 21
857.93494212192729
  0
LINE
  8
_0-0_0
  6
CONTINUOUS
 62
    7
 10
1082.950775810267
 20
857.93494212192729
 11
1083.1375179154376
 21
857.80678376940716
  0
LINE
  8
_0-0_0
  6
CONTINUOUS
 62
    7
 10
1083.1375179154376
 20
857.80678376940716
 11
1083.1375179154376
 21
857.80678376940716
  0
LINE
  8
_0-0_0
  6
CONTINUOUS
 62
    7
 10
1083.1375179154151
 20
857.80678376941182
 11
1087.827991622415
 21
855.10571960191191
  0
LINE
  8
_0-0_0
  6
CONTINUOUS
 62
    7
 10
1088.1705374514151
 20
855.2758307769119
 11
1088.2178665354151
 21
855.30308578391191
  0
LINE
  8
_0-0_0
  6
CONTINUOUS
 62
    7
 10
1082.6493625507484
 20
857.80415402191192
 11
1082.6493625507484
 21
857.80415402191192
  0
LINE
  8
_0-0_0
  6
CONTINUOUS
 62
    7
 10
1082.6493625507484
 20
857.80415402191192
 11
1082.6746829623948
 21
857.63749179696731
  0
LINE
  8
_0-0_0
  6
CONTINUOUS
 62
    7
 10
1082.6746829623948
 20
857.63749179696731
 11
1082.7498748494385
 21
857.47589351939234
  0
LINE
  8
_0-0_0
  6
CONTINUOUS
 62
    7
 10
1082.7498748494385
 20
857.47589351939234
 11
1082.8726535444411
 21
857.32426927107871
  0
LINE
  8
_0-0_0
  6
CONTINUOUS
 62
    7
 10
1082.8726535444411
 20
857.32426927107871
 11
1083.0392884788834
 21
857.1872260780857
  0
LINE
  8
_0-0_0
  6
CONTINUOUS
 62
    7
 10
1083.0392884788834
 20
857.1872260780857
 11
1083.1375179154381
 21
857.12549449890718
  0
LINE
  8
_0-0_0
  6
CONTINUOUS
 62
    7
 10
1083.1375179154151
 20
857.12549449891184
 11
1083.1375179154151
 21
857.80678376941182
  0
LINE
  8
_0-0_0
  6
CONTINUOUS
 62
    7
 10
1087.827991622415
 20
854.42443033141194
 11
1083.1375179154151
 21
857.12549449891184
  0
LINE
  8
_0-0_0
  6
CONTINUOUS
 62
    7
 10
1082.6493625504149
 20
857.80415402191181
 11
1082.6493625504149
 21
858.48544329241178
  0
LINE
  8
_0-0_0
  6
CONTINUOUS
 62
    7
 10
1088.4408187744229
 20
896.30883168110949
 11
1088.4408187744229
 21
896.30883168110949
  0
LINE
  8
_0-0_0
  6
CONTINUOUS
 62
    7
 10
1088.4408187744229
 20
896.30883168110949
 11
1088.3384956044501
 21
896.23955737152664
  0
LINE
  8
_0-0_0
  6
CONTINUOUS
 62
    7
 10
1088.3384956044501
 20
896.23955737152664
 11
1088.2392814722186
 21
896.15168729704475
  0
LINE
  8
_0-0_0
  6
CONTINUOUS
 62
    7
 10
1088.2392814722186
 20
896.15168729704475
 11
1088.1461909489316
 21
896.0478913454126
  0
LINE
  8
_0-0_0
  6
CONTINUOUS
 62
    7
 10
1088.1461909489316
 20
896.0478913454126
 11
1088.0620525430329
 21
895.9313233040973
  0
LINE
  8
_0-0_0
  6
CONTINUOUS
 62
    7
 10
1088.0620525430329
 20
895.9313233040973
 11
1087.98942275741
 21
895.80552503404794
  0
LINE
  8
_0-0_0
  6
CONTINUOUS
 62
    7
 10
1087.98942275741
 20
895.80552503404794
 11
1087.9305084113464
 21
895.67431885204291
  0
LINE
  8
_0-0_0
  6
CONTINUOUS
 62
    7
 10
1087.9305084113464
 20
895.67431885204291
 11
1087.8870995874349
 21
895.54169139152907
  0
LINE
  8
_0-0_0
  6
CONTINUOUS
 62
    7
 10
1087.8870995874349
 20
895.54169139152907
 11
1087.8605152408244
 21
895.41167247078112
  0
LINE
  8
_0-0_0
  6
CONTINUOUS
 62
    7
 10
1087.8605152408244
 20
895.41167247078112
 11
1087.8515631234345
 21
895.28821264891359
  0
LINE
  8
_0-0_0
  6
CONTINUOUS
 62
    7
 10
1088.4408187744152
 20
896.3088316814119
 11
1087.8515631234149
 21
896.64816144291194
  0
LINE
  8
_0-0_0
  6
CONTINUOUS
 62
    7
 10
1087.8515631234226
 20
896.6481614426093
 11
1087.8515631234226
 21
896.6481614426093
  0
LINE
  8
_0-0_0
  6
CONTINUOUS
 62
    7
 10
1087.8515631234226
 20
896.6481614426093
 11
1087.7492399534498
 21
896.57888713302645
  0
LINE
  8
_0-0_0
  6
CONTINUOUS
 62
    7
 10
1087.7492399534498
 20
896.57888713302645
 11
1087.6500258212183
 21
896.49101705854457
  0
LINE
  8
_0-0_0
  6
CONTINUOUS
 62
    7
 10
1087.6500258212183
 20
896.49101705854457
 11
1087.5569352979314
 21
896.38722110691242
  0
LINE
  8
_0-0_0
  6
CONTINUOUS
 62
    7
 10
1087.5569352979314
 20
896.38722110691242
 11
1087.4727968920326
 21
896.27065306559711
  0
LINE
  8
_0-0_0
  6
CONTINUOUS
 62
    7
 10
1087.4727968920326
 20
896.27065306559711
 11
1087.4001671064097
 21
896.14485479554775
  0
LINE
  8
_0-0_0
  6
CONTINUOUS
 62
    7
 10
1087.4001671064097
 20
896.14485479554775
 11
1087.3412527603459
 21
896.01364861354284
  0
LINE
  8
_0-0_0
  6
CONTINUOUS
 62
    7
 10
1087.3412527603459
 20
896.01364861354284
 11
1087.2978439364346
 21
895.88102115302888
  0
LINE
  8
_0-0_0
  6
CONTINUOUS
 62
    7
 10
1087.2978439364346
 20
895.88102115302888
 11
1087.2712595898242
 21
895.75100223228105
  0
LINE
  8
_0-0_0
  6
CONTINUOUS
 62
    7
 10
1087.2712595898242
 20
895.75100223228105
 11
1087.2623074724342
 21
895.62754241041363
  0
LINE
  8
_0-0_0
  6
CONTINUOUS
 62
    7
 10
1087.2623074724151
 20
895.62754241041204
 11
1087.8515631234149
 21
895.28821264891212
  0
LINE
  8
_0-0_0
  6
CONTINUOUS
 62
    7
 10
1143.7129988369151
 20
928.81662283241189
 11
1087.8515631234149
 21
896.64816144291194
  0
LINE
  8
_0-0_0
  6
CONTINUOUS
 62
    7
 10
1144.1288590132355
 20
928.8574864248668
 11
1144.1288590132355
 21
928.8574864248668
  0
LINE
  8
_0-0_0
  6
CONTINUOUS
 62
    7
 10
1144.1288590132355
 20
928.8574864248668
 11
1144.050047980332
 21
928.88826134752457
  0
LINE
  8
_0-0_0
  6
CONTINUOUS
 62
    7
 10
1144.050047980332
 20
928.88826134752457
 11
1143.9609958797609
 21
928.89615894040116
  0
LINE
  8
_0-0_0
  6
CONTINUOUS
 62
    7
 10
1143.9609958797609
 20
928.89615894040116
 11
1143.8644085145353
 21
928.88093923913334
  0
LINE
  8
_0-0_0
  6
CONTINUOUS
 62
    7
 10
1143.8644085145353
 20
928.88093923913334
 11
1143.7632206428725
 21
928.84306468664271
  0
LINE
  8
_0-0_0
  6
CONTINUOUS
 62
    7
 10
1143.7632206428725
 20
928.84306468664271
 11
1143.7129988369231
 21
928.81662283210982
  0
LINE
  8
_0-0_0
  6
CONTINUOUS
 62
    7
 10
1087.2623074724151
 20
855.431475438912
 11
1087.2623074724151
 21
895.62754241041204
  0
LINE
  8
_0-0_0
  6
CONTINUOUS
 62
    7
 10
1088.4408187744152
 20
896.3088316814119
 11
1144.3022544879149
 21
928.47729307091185
  0
LINE
  8
_0-0_0
  6
CONTINUOUS
 62
    7
 10
1143.7129988369151
 20
928.81662283241189
 11
1144.3022544879149
 21
928.47729307091185
  0
LINE
  8
_0-0_0
  6
CONTINUOUS
 62
    7
 10
1144.8483514795198
 20
928.36641365302341
 11
1144.8483514795198
 21
928.36641365302341
  0
LINE
  8
_0-0_0
  6
CONTINUOUS
 62
    7
 10
1144.8483514795198
 20
928.36641365302341
 11
1144.8016162595624
 21
928.4452521168065
  0
LINE
  8
_0-0_0
  6
CONTINUOUS
 62
    7
 10
1144.8016162595624
 20
928.4452521168065
 11
1144.739708184863
 21
928.50436349901633
  0
LINE
  8
_0-0_0
  6
CONTINUOUS
 62
    7
 10
1144.739708184863
 20
928.50436349901633
 11
1144.6645083009439
 21
928.54195173021605
  0
LINE
  8
_0-0_0
  6
CONTINUOUS
 62
    7
 10
1144.6645083009439
 20
928.54195173021605
 11
1144.578301518225
 21
928.55687471102146
  0
LINE
  8
_0-0_0
  6
CONTINUOUS
 62
    7
 10
1144.578301518225
 20
928.55687471102146
 11
1144.483707186177
 21
928.54867901421198
  0
LINE
  8
_0-0_0
  6
CONTINUOUS
 62
    7
 10
1144.483707186177
 20
928.54867901421198
 11
1144.3835995057117
 21
928.51761366188804
  0
LINE
  8
_0-0_0
  6
CONTINUOUS
 62
    7
 10
1144.3835995057117
 20
928.51761366188804
 11
1144.3022544879229
 21
928.47729307060922
  0
LINE
  8
_0-0_0
  6
CONTINUOUS
 62
    7
 10
1087.2623074724151
 20
855.431475438912
 11
1087.827991622415
 21
855.10571960191191
  0
LINE
  8
_0-0_0
  6
CONTINUOUS
 62
    7
 10
1087.8515631234149
 20
855.32378402941185
 11
1087.8515631234149
 21
895.28821264891212
  0
LINE
  8
_0-0_0
  6
CONTINUOUS
 62
    7
 10
1088.1705374514151
 20
855.2758307769119
 11
1088.2178665354151
 21
855.30308578391191
  0
LINE
  8
_0-0_0
  6
CONTINUOUS
 62
    7
 10
1144.7181146644152
 20
928.5181566634119
 11
1144.1288590134151
 21
928.85748642491194
  0
LINE
  8
_0-0_0
  6
CONTINUOUS
 62
    7
 10
1308.704581113893
 20
792.24827384890727
 11
1308.704581113893
 21
792.24827384890727
  0
LINE
  8
_0-0_0
  6
CONTINUOUS
 62
    7
 10
1308.704581113893
 20
792.24827384890727
 11
1308.8913232190636
 21
792.3764322014274
  0
LINE
  8
_0-0_0
  6
CONTINUOUS
 62
    7
 10
1308.8913232190636
 20
792.3764322014274
 11
1309.0365827903099
 21
792.52131725344577
  0
LINE
  8
_0-0_0
  6
CONTINUOUS
 62
    7
 10
1309.0365827903099
 20
792.52131725344577
 11
1309.1359461890638
 21
792.67852674597202
  0
LINE
  8
_0-0_0
  6
CONTINUOUS
 62
    7
 10
1309.1359461890638
 20
792.67852674597202
 11
1309.186394308735
 21
792.84328394812757
  0
LINE
  8
_0-0_0
  6
CONTINUOUS
 62
    7
 10
1309.186394308735
 20
792.84328394812757
 11
1309.186394308735
 21
793.01058279569622
  0
LINE
  8
_0-0_0
  6
CONTINUOUS
 62
    7
 10
1309.186394308735
 20
793.01058279569622
 11
1309.1359461890638
 21
793.17533999785189
  0
LINE
  8
_0-0_0
  6
CONTINUOUS
 62
    7
 10
1309.1359461890638
 20
793.17533999785189
 11
1309.0365827903096
 21
793.33254949037802
  0
LINE
  8
_0-0_0
  6
CONTINUOUS
 62
    7
 10
1309.0365827903096
 20
793.33254949037802
 11
1308.8913232190636
 21
793.47743454239639
  0
LINE
  8
_0-0_0
  6
CONTINUOUS
 62
    7
 10
1308.8913232190636
 20
793.47743454239639
 11
1308.7045811138928
 21
793.60559289491652
  0
LINE
  8
_0-0_0
  6
CONTINUOUS
 62
    7
 10
1308.7045811138928
 20
793.60559289491652
 11
1308.7045811138928
 21
793.60559289491664
  0
LINE
  8
_0-0_0
  6
CONTINUOUS
 62
    7
 10
1308.704581113915
 20
791.56698457841184
 11
1308.704581113915
 21
792.24827384891182
  0
LINE
  8
_0-0_0
  6
CONTINUOUS
 62
    7
 10
1308.7045811138925
 20
791.56698457840775
 11
1308.7045811138925
 21
791.56698457840775
  0
LINE
  8
_0-0_0
  6
CONTINUOUS
 62
    7
 10
1308.7045811138925
 20
791.56698457840775
 11
1308.8913232190629
 21
791.69514293092788
  0
LINE
  8
_0-0_0
  6
CONTINUOUS
 62
    7
 10
1308.8913232190629
 20
791.69514293092788
 11
1309.036582790309
 21
791.84002798294613
  0
LINE
  8
_0-0_0
  6
CONTINUOUS
 62
    7
 10
1309.036582790309
 20
791.84002798294613
 11
1309.1359461890631
 21
791.99723747547227
  0
LINE
  8
_0-0_0
  6
CONTINUOUS
 62
    7
 10
1309.1359461890631
 20
791.99723747547227
 11
1309.1863943087341
 21
792.16199467762783
  0
LINE
  8
_0-0_0
  6
CONTINUOUS
 62
    7
 10
1309.1863943087341
 20
792.16199467762783
 11
1309.1927364785813
 21
792.24564410141204
  0
LINE
  8
_0-0_0
  6
CONTINUOUS
 62
    7
 10
1304.579791556915
 20
795.98090122541179
 11
1308.704581113915
 21
793.60559289491197
  0
LINE
  8
_0-0_0
  6
CONTINUOUS
 62
    7
 10
1251.664634097915
 20
760.75847198241206
 11
1246.9505888904152
 21
763.47311007441203
  0
LINE
  8
_0-0_0
  6
CONTINUOUS
 62
    7
 10
1251.6646340979382
 20
760.75847198240717
 11
1251.6646340979382
 21
760.75847198240717
  0
LINE
  8
_0-0_0
  6
CONTINUOUS
 62
    7
 10
1251.6646340979382
 20
760.75847198240717
 11
1251.887184672664
 21
760.65093435607536
  0
LINE
  8
_0-0_0
  6
CONTINUOUS
 62
    7
 10
1251.887184672664
 20
760.65093435607536
 11
1252.1387816303481
 21
760.56728493229104
  0
LINE
  8
_0-0_0
  6
CONTINUOUS
 62
    7
 10
1252.1387816303481
 20
760.56728493229104
 11
1252.4117803247449
 21
760.51006535646752
  0
LINE
  8
_0-0_0
  6
CONTINUOUS
 62
    7
 10
1252.4117803247449
 20
760.51006535646752
 11
1252.6978858286697
 21
760.48101421646151
  0
LINE
  8
_0-0_0
  6
CONTINUOUS
 62
    7
 10
1252.6978858286697
 20
760.48101421646151
 11
1252.988404971162
 21
760.48101421646163
  0
LINE
  8
_0-0_0
  6
CONTINUOUS
 62
    7
 10
1252.988404971162
 20
760.48101421646163
 11
1253.2745104750867
 21
760.51006535646774
  0
LINE
  8
_0-0_0
  6
CONTINUOUS
 62
    7
 10
1253.2745104750867
 20
760.51006535646774
 11
1253.5475091694836
 21
760.56728493229149
  0
LINE
  8
_0-0_0
  6
CONTINUOUS
 62
    7
 10
1253.5475091694836
 20
760.56728493229149
 11
1253.7991061271675
 21
760.65093435607582
  0
LINE
  8
_0-0_0
  6
CONTINUOUS
 62
    7
 10
1253.7991061271675
 20
760.65093435607582
 11
1254.0216567018926
 21
760.75847198240751
  0
LINE
  8
_0-0_0
  6
CONTINUOUS
 62
    7
 10
1308.704581113915
 20
792.24827384891182
 11
1254.0216567019149
 21
760.75847198241206
  0
LINE
  8
_0-0_0
  6
CONTINUOUS
 62
    7
 10
1251.664634097915
 20
760.07718271191197
 11
1251.664634097915
 21
760.75847198241206
  0
LINE
  8
_0-0_0
  6
CONTINUOUS
 62
    7
 10
1251.664634097938
 20
760.07718271140731
 11
1251.664634097938
 21
760.07718271140731
  0
LINE
  8
_0-0_0
  6
CONTINUOUS
 62
    7
 10
1251.664634097938
 20
760.07718271140731
 11
1251.8871846726638
 21
759.96964508507539
  0
LINE
  8
_0-0_0
  6
CONTINUOUS
 62
    7
 10
1251.8871846726638
 20
759.96964508507539
 11
1252.1387816303476
 21
759.88599566129119
  0
LINE
  8
_0-0_0
  6
CONTINUOUS
 62
    7
 10
1252.1387816303476
 20
759.88599566129119
 11
1252.4117803247447
 21
759.82877608546755
  0
LINE
  8
_0-0_0
  6
CONTINUOUS
 62
    7
 10
1252.4117803247447
 20
759.82877608546755
 11
1252.6978858286695
 21
759.79972494546154
  0
LINE
  8
_0-0_0
  6
CONTINUOUS
 62
    7
 10
1252.6978858286695
 20
759.79972494546154
 11
1252.9884049711615
 21
759.79972494546154
  0
LINE
  8
_0-0_0
  6
CONTINUOUS
 62
    7
 10
1252.9884049711615
 20
759.79972494546154
 11
1253.2745104750863
 21
759.82877608546766
  0
LINE
  8
_0-0_0
  6
CONTINUOUS
 62
    7
 10
1253.2745104750863
 20
759.82877608546766
 11
1253.5475091694831
 21
759.8859956612913
  0
LINE
  8
_0-0_0
  6
CONTINUOUS
 62
    7
 10
1253.5475091694831
 20
759.8859956612913
 11
1253.799106127167
 21
759.96964508507562
  0
LINE
  8
_0-0_0
  6
CONTINUOUS
 62
    7
 10
1253.799106127167
 20
759.96964508507562
 11
1254.0216567018928
 21
760.07718271140754
  0
LINE
  8
_0-0_0
  6
CONTINUOUS
 62
    7
 10
1254.0216567019149
 20
760.75847198241206
 11
1254.0216567019149
 21
760.07718271191197
  0
LINE
  8
_0-0_0
  6
CONTINUOUS
 62
    7
 10
1246.9505888904152
 20
762.79182080341206
 11
1246.9505888904152
 21
763.47311007441203
  0
LINE
  8
_0-0_0
  6
CONTINUOUS
 62
    7
 10
1246.9505888904152
 20
762.79182080341206
 11
1251.664634097915
 21
760.07718271191197
  0
LINE
  8
_0-0_0
  6
CONTINUOUS
 62
    7
 10
1254.0216567019149
 20
760.07718271191197
 11
1308.704581113915
 21
791.56698457841184
  0
LINE
  8
_0-0_0
  6
CONTINUOUS
 62
    7
 10
1309.1927364784148
 20
792.92693337191178
 11
1309.1927364784148
 21
792.24564410141181
  0
LINE
  8
_0-0_0
  6
CONTINUOUS
 62
    7
 10
1247.5398445414232
 20
804.68979607810945
 11
1247.5398445414232
 21
804.68979607810945
  0
LINE
  8
_0-0_0
  6
CONTINUOUS
 62
    7
 10
1247.5398445414232
 20
804.68979607810945
 11
1247.4375213714504
 21
804.6205217685266
  0
LINE
  8
_0-0_0
  6
CONTINUOUS
 62
    7
 10
1247.4375213714504
 20
804.6205217685266
 11
1247.3383072392189
 21
804.53265169404471
  0
LINE
  8
_0-0_0
  6
CONTINUOUS
 62
    7
 10
1247.3383072392189
 20
804.53265169404471
 11
1247.2452167159319
 21
804.42885574241267
  0
LINE
  8
_0-0_0
  6
CONTINUOUS
 62
    7
 10
1247.2452167159319
 20
804.42885574241267
 11
1247.1610783100334
 21
804.31228770109748
  0
LINE
  8
_0-0_0
  6
CONTINUOUS
 62
    7
 10
1247.1610783100334
 20
804.31228770109748
 11
1247.0884485244102
 21
804.18648943104813
  0
LINE
  8
_0-0_0
  6
CONTINUOUS
 62
    7
 10
1247.0884485244102
 20
804.18648943104813
 11
1247.0295341783466
 21
804.05528324904321
  0
LINE
  8
_0-0_0
  6
CONTINUOUS
 62
    7
 10
1247.0295341783466
 20
804.05528324904321
 11
1246.9861253544352
 21
803.92265578852925
  0
LINE
  8
_0-0_0
  6
CONTINUOUS
 62
    7
 10
1246.9861253544352
 20
803.92265578852925
 11
1246.9595410078247
 21
803.79263686778142
  0
LINE
  8
_0-0_0
  6
CONTINUOUS
 62
    7
 10
1246.9595410078247
 20
803.79263686778142
 11
1246.9505888904348
 21
803.66917704591378
  0
LINE
  8
_0-0_0
  6
CONTINUOUS
 62
    7
 10
1247.5398445414152
 20
803.32984728441192
 11
1246.9505888904152
 21
803.66917704591185
  0
LINE
  8
_0-0_0
  6
CONTINUOUS
 62
    7
 10
1248.1291001924228
 20
804.35046631660918
 11
1248.1291001924228
 21
804.35046631660918
  0
LINE
  8
_0-0_0
  6
CONTINUOUS
 62
    7
 10
1248.1291001924228
 20
804.35046631660918
 11
1248.02677702245
 21
804.28119200702622
  0
LINE
  8
_0-0_0
  6
CONTINUOUS
 62
    7
 10
1248.02677702245
 20
804.28119200702622
 11
1247.9275628902184
 21
804.19332193254433
  0
LINE
  8
_0-0_0
  6
CONTINUOUS
 62
    7
 10
1247.9275628902184
 20
804.19332193254433
 11
1247.8344723669313
 21
804.08952598091218
  0
LINE
  8
_0-0_0
  6
CONTINUOUS
 62
    7
 10
1247.8344723669313
 20
804.08952598091218
 11
1247.7503339610327
 21
803.97295793959699
  0
LINE
  8
_0-0_0
  6
CONTINUOUS
 62
    7
 10
1247.7503339610327
 20
803.97295793959699
 11
1247.6777041754098
 21
803.84715966954763
  0
LINE
  8
_0-0_0
  6
CONTINUOUS
 62
    7
 10
1247.6777041754098
 20
803.84715966954763
 11
1247.6187898293462
 21
803.7159534875426
  0
LINE
  8
_0-0_0
  6
CONTINUOUS
 62
    7
 10
1247.6187898293462
 20
803.7159534875426
 11
1247.5753810054347
 21
803.58332602702876
  0
LINE
  8
_0-0_0
  6
CONTINUOUS
 62
    7
 10
1247.5753810054347
 20
803.58332602702876
 11
1247.5487966588245
 21
803.45330710628093
  0
LINE
  8
_0-0_0
  6
CONTINUOUS
 62
    7
 10
1247.5487966588245
 20
803.45330710628093
 11
1247.5398445414346
 21
803.32984728441351
  0
LINE
  8
_0-0_0
  6
CONTINUOUS
 62
    7
 10
1247.5398445414152
 20
804.68979607791186
 11
1248.129100192415
 21
804.35046631641182
  0
LINE
  8
_0-0_0
  6
CONTINUOUS
 62
    7
 10
1247.5398445414152
 20
763.13378031291199
 11
1247.5398445414152
 21
803.32984728441192
  0
LINE
  8
_0-0_0
  6
CONTINUOUS
 62
    7
 10
1304.579791556915
 20
795.98090122541179
 11
1247.5398445414152
 21
763.13378031291199
  0
LINE
  8
_0-0_0
  6
CONTINUOUS
 62
    7
 10
1304.579791556915
 20
795.98090122541179
 11
1304.579791556915
 21
836.17696819691195
  0
LINE
  8
_0-0_0
  6
CONTINUOUS
 62
    7
 10
1304.5797915568955
 20
836.17696819690991
 11
1304.5797915568955
 21
836.17696819690991
  0
LINE
  8
_0-0_0
  6
CONTINUOUS
 62
    7
 10
1304.5797915568955
 20
836.17696819690991
 11
1304.5708394395085
 21
836.29011765568361
  0
LINE
  8
_0-0_0
  6
CONTINUOUS
 62
    7
 10
1304.5708394395085
 20
836.29011765568361
 11
1304.5442550929005
 21
836.38951876231487
  0
LINE
  8
_0-0_0
  6
CONTINUOUS
 62
    7
 10
1304.5442550929005
 20
836.38951876231487
 11
1304.5008462689918
 21
836.47215126447815
  0
LINE
  8
_0-0_0
  6
CONTINUOUS
 62
    7
 10
1304.5008462689918
 20
836.47215126447815
 11
1304.4419319229305
 21
836.53550441540915
  0
LINE
  8
_0-0_0
  6
CONTINUOUS
 62
    7
 10
1304.4419319229305
 20
836.53550441540915
 11
1304.3693021373094
 21
836.5776532616752
  0
LINE
  8
_0-0_0
  6
CONTINUOUS
 62
    7
 10
1304.3693021373094
 20
836.5776532616752
 11
1304.2851637314124
 21
836.59731713191081
  0
LINE
  8
_0-0_0
  6
CONTINUOUS
 62
    7
 10
1304.2851637314124
 20
836.59731713191081
 11
1304.1920732081264
 21
836.59389854936932
  0
LINE
  8
_0-0_0
  6
CONTINUOUS
 62
    7
 10
1304.1920732081264
 20
836.59389854936932
 11
1304.0928590758958
 21
836.56750138595123
  0
LINE
  8
_0-0_0
  6
CONTINUOUS
 62
    7
 10
1304.0928590758958
 20
836.56750138595123
 11
1303.9905359059232
 21
836.51892770610947
  0
LINE
  8
_0-0_0
  6
CONTINUOUS
 62
    7
 10
1303.9905359059232
 20
836.51892770610947
 11
1303.990535905923
 21
836.51892770610936
  0
LINE
  8
_0-0_0
  6
CONTINUOUS
 62
    7
 10
1303.990535905915
 20
836.51892770591189
 11
1248.129100192415
 21
804.35046631641182
  0
LINE
  8
_0-0_0
  6
CONTINUOUS
 62
    7
 10
1303.990535905915
 20
836.51892770591189
 11
1303.401280254915
 21
836.85825746741193
  0
LINE
  8
_0-0_0
  6
CONTINUOUS
 62
    7
 10
1247.5398445414152
 20
804.68979607791186
 11
1303.401280254915
 21
836.85825746741193
  0
LINE
  8
_0-0_0
  6
CONTINUOUS
 62
    7
 10
1303.8171404312347
 20
836.89912106036626
 11
1303.8171404312347
 21
836.89912106036626
  0
LINE
  8
_0-0_0
  6
CONTINUOUS
 62
    7
 10
1303.8171404312347
 20
836.89912106036626
 11
1303.7383293983314
 21
836.92989598302392
  0
LINE
  8
_0-0_0
  6
CONTINUOUS
 62
    7
 10
1303.7383293983314
 20
836.92989598302392
 11
1303.6492772977603
 21
836.93779357590051
  0
LINE
  8
_0-0_0
  6
CONTINUOUS
 62
    7
 10
1303.6492772977603
 20
836.93779357590051
 11
1303.552689932535
 21
836.92257387463268
  0
LINE
  8
_0-0_0
  6
CONTINUOUS
 62
    7
 10
1303.552689932535
 20
836.92257387463268
 11
1303.4515020608721
 21
836.88469932214206
  0
LINE
  8
_0-0_0
  6
CONTINUOUS
 62
    7
 10
1303.4515020608721
 20
836.88469932214206
 11
1303.4012802549227
 21
836.85825746760917
  0
LINE
  8
_0-0_0
  6
CONTINUOUS
 62
    7
 10
1246.9505888904152
 20
763.47311007441203
 11
1246.9505888904152
 21
803.66917704591185
  0
LINE
  8
_0-0_0
  6
CONTINUOUS
 62
    7
 10
1247.5398445414152
 20
763.13378031291199
 11
1246.9505888904152
 21
763.47311007441203
  0
LINE
  8
_0-0_0
  6
CONTINUOUS
 62
    7
 10
1304.406396082415
 20
836.55979129891181
 11
1303.817140431415
 21
836.89912106041197
  0
LINE
  8
_0-0_0
  6
CONTINUOUS
 62
    7
 10
1246.9505888904152
 20
764.788920566412
 11
1208.4946233484151
 21
786.93423829641187
  0
LINE
  8
_0-0_0
  6
CONTINUOUS
 62
    7
 10
1167.012166417915
 20
810.8223965054118
 11
1129.5343661159149
 21
832.4044263364118
  0
LINE
  8
_0-0_0
  6
CONTINUOUS
 62
    7
 10
1246.9505888904152
 20
764.35457847141196
 11
1208.1174997319153
 21
786.7170672489118
  0
LINE
  8
_0-0_0
  6
CONTINUOUS
 62
    7
 10
1167.0828770959151
 20
810.34733483941181
 11
1129.1572424994151
 21
832.18725528891184
  0
LINE
  8
_0-0_0
  6
CONTINUOUS
 62
    7
 10
1246.9505888904152
 20
764.08206276341206
 11
1207.8808841454151
 21
786.58080939491185
  0
LINE
  8
_0-0_0
  6
CONTINUOUS
 62
    7
 10
1167.0828770959151
 20
810.0748191309118
 11
1128.9206269129149
 21
832.05099743491189
  0
LINE
  8
_0-0_0
  6
CONTINUOUS
 62
    7
 10
1246.9505888904152
 20
763.84048027291203
 11
1087.969414202915
 21
855.39164995291207
  0
LINE
  8
_0-0_0
  6
CONTINUOUS
 62
    7
 10
1246.9505889404149
 20
763.704748397412
 11
1246.927018663415
 21
763.69117517791198
  0
LINE
  8
_0-0_0
  6
CONTINUOUS
 62
    7
 10
1087.827991622415
 20
855.31021151491188
 11
1087.8515618994151
 21
855.3237847344119
  0
LINE
  8
_0-0_0
  6
CONTINUOUS
 62
    7
 10
1246.927018663415
 20
763.69117517791198
 11
1087.827991622415
 21
855.31021151491188
  0
LINE
  8
_0-0_0
  6
CONTINUOUS
 62
    7
 10
1246.927018663415
 20
763.69117517791198
 11
1246.927018663415
 21
762.778247555412
  0
LINE
  8
_0-0_0
  6
CONTINUOUS
 62
    7
 10
1087.827991622415
 20
854.39728389191202
 11
1087.827991622415
 21
855.31021151491188
  0
LINE
  8
_0-0_0
  6
CONTINUOUS
 62
    7
 10
1246.927018663415
 20
762.778247555412
 11
1087.827991622415
 21
854.39728389191202
  0
LINE
  8
_0-0_0
  6
CONTINUOUS
 62
    7
 10
1246.927018663415
 20
762.778247555412
 11
1246.9505889404149
 21
762.79182077491202
  0
LINE
  8
_0-0_0
  6
CONTINUOUS
 62
    7
 10
1246.9505888904152
 20
764.87035970891201
 11
1208.564507250415
 21
786.97543397641186
  0
LINE
  8
_0-0_0
  6
CONTINUOUS
 62
    7
 10
1167.012166417915
 20
810.90383564791181
 11
1129.604250017915
 21
832.4456220164119
  0
LINE
  8
_0-0_0
  6
CONTINUOUS
 62
    7
 10
1088.3111816719151
 20
860.80776775941194
 11
1088.4054625759151
 21
860.86206052141187
  0
LINE
  8
_0-0_0
  6
CONTINUOUS
 62
    7
 10
1088.3111816719167
 20
860.80776775955155
 11
1088.3111816719167
 21
860.80776775955155
  0
LINE
  8
_0-0_0
  6
CONTINUOUS
 62
    7
 10
1088.3111816719167
 20
860.80776775955155
 11
1088.2907170379221
 21
860.79391289763498
  0
LINE
  8
_0-0_0
  6
CONTINUOUS
 62
    7
 10
1088.2907170379221
 20
860.79391289763498
 11
1088.2708742114759
 21
860.77633888273862
  0
LINE
  8
_0-0_0
  6
CONTINUOUS
 62
    7
 10
1088.2708742114759
 20
860.77633888273862
 11
1088.2522561068185
 21
860.75557969241219
  0
LINE
  8
_0-0_0
  6
CONTINUOUS
 62
    7
 10
1088.2522561068185
 20
860.75557969241219
 11
1088.2354284256387
 21
860.73226608414915
  0
LINE
  8
_0-0_0
  6
CONTINUOUS
 62
    7
 10
1088.2354284256387
 20
860.73226608414915
 11
1088.2209024685141
 21
860.70710643013921
  0
LINE
  8
_0-0_0
  6
CONTINUOUS
 62
    7
 10
1088.2209024685141
 20
860.70710643013921
 11
1088.2091195993014
 21
860.68086519373821
  0
LINE
  8
_0-0_0
  6
CONTINUOUS
 62
    7
 10
1088.2091195993014
 20
860.68086519373821
 11
1088.2004378345191
 21
860.65433970163542
  0
LINE
  8
_0-0_0
  6
CONTINUOUS
 62
    7
 10
1088.2004378345191
 20
860.65433970163542
 11
1088.195120965197
 21
860.62833591748585
  0
LINE
  8
_0-0_0
  6
CONTINUOUS
 62
    7
 10
1088.195120965197
 20
860.62833591748585
 11
1088.1933305417189
 21
860.60364395311228
  0
LINE
  8
_0-0_0
  6
CONTINUOUS
 62
    7
 10
1088.1933305417189
 20
860.60364395311228
 11
1088.1933305417189
 21
860.60364395311228
  0
LINE
  8
_0-0_0
  6
CONTINUOUS
 62
    7
 10
1088.1933305414149
 20
856.07988319541186
 11
1088.1933305414149
 21
860.60364395291207
  0
LINE
  8
_0-0_0
  6
CONTINUOUS
 62
    7
 10
1088.1992230979151
 20
856.08327649291197
 11
1088.1933305414149
 21
856.07988319541186
  0
LINE
  8
_0-0_0
  6
CONTINUOUS
 62
    7
 10
1088.2032564534151
 20
855.40618818791188
 11
1088.1226198634153
 21
855.45262371191199
  0
LINE
  8
_0-0_0
  6
CONTINUOUS
 62
    7
 10
1088.1226198634153
 20
855.45262371191199
 11
1088.1226198634153
 21
856.12060276691181
  0
LINE
  8
_0-0_0
  6
CONTINUOUS
 62
    7
 10
1088.1933305414149
 20
856.07988319541186
 11
1088.051909185415
 21
856.16132233841199
  0
LINE
  8
_0-0_0
  6
CONTINUOUS
 62
    7
 10
1088.051909185415
 20
860.68508309591175
 11
1088.1933305414149
 21
860.60364395291207
  0
LINE
  8
_0-0_0
  6
CONTINUOUS
 62
    7
 10
1088.051909185415
 20
856.16132233841199
 11
1088.051909185415
 21
860.68508309591175
  0
LINE
  8
_0-0_0
  6
CONTINUOUS
 62
    7
 10
1088.1697603154166
 20
860.88920690205145
 11
1088.1697603154166
 21
860.88920690205145
  0
LINE
  8
_0-0_0
  6
CONTINUOUS
 62
    7
 10
1088.1697603154166
 20
860.88920690205145
 11
1088.149295681422
 21
860.87535204013488
  0
LINE
  8
_0-0_0
  6
CONTINUOUS
 62
    7
 10
1088.149295681422
 20
860.87535204013488
 11
1088.1294528549756
 21
860.85777802523841
  0
LINE
  8
_0-0_0
  6
CONTINUOUS
 62
    7
 10
1088.1294528549756
 20
860.85777802523841
 11
1088.1108347503184
 21
860.83701883491198
  0
LINE
  8
_0-0_0
  6
CONTINUOUS
 62
    7
 10
1088.1108347503184
 20
860.83701883491198
 11
1088.0940070691385
 21
860.81370522664894
  0
LINE
  8
_0-0_0
  6
CONTINUOUS
 62
    7
 10
1088.0940070691385
 20
860.81370522664894
 11
1088.079481112014
 21
860.788545572639
  0
LINE
  8
_0-0_0
  6
CONTINUOUS
 62
    7
 10
1088.079481112014
 20
860.788545572639
 11
1088.0676982428014
 21
860.762304336238
  0
LINE
  8
_0-0_0
  6
CONTINUOUS
 62
    7
 10
1088.0676982428014
 20
860.762304336238
 11
1088.0590164780192
 21
860.73577884413521
  0
LINE
  8
_0-0_0
  6
CONTINUOUS
 62
    7
 10
1088.0590164780192
 20
860.73577884413521
 11
1088.0536996086971
 21
860.70977505998564
  0
LINE
  8
_0-0_0
  6
CONTINUOUS
 62
    7
 10
1088.0536996086971
 20
860.70977505998564
 11
1088.0519091852193
 21
860.68508309561241
  0
LINE
  8
_0-0_0
  6
CONTINUOUS
 62
    7
 10
1088.3111816719151
 20
860.80776775941194
 11
1088.1697603154152
 21
860.88920690191207
  0
LINE
  8
_0-0_0
  6
CONTINUOUS
 62
    7
 10
1088.1697603154152
 20
860.88920690191207
 11
1088.4054625759151
 21
861.0249388069119
  0
LINE
  8
_0-0_0
  6
CONTINUOUS
 62
    7
 10
1088.1226198633173
 20
855.45262371176204
 11
1088.1226198633173
 21
855.45262371176204
  0
LINE
  8
_0-0_0
  6
CONTINUOUS
 62
    7
 10
1088.1226198633173
 20
855.45262371176204
 11
1088.123515075056
 21
855.44130876588474
  0
LINE
  8
_0-0_0
  6
CONTINUOUS
 62
    7
 10
1088.123515075056
 20
855.44130876588474
 11
1088.1261735097168
 21
855.4313686552216
  0
LINE
  8
_0-0_0
  6
CONTINUOUS
 62
    7
 10
1088.1261735097168
 20
855.4313686552216
 11
1088.1305143921076
 21
855.42310540500534
  0
LINE
  8
_0-0_0
  6
CONTINUOUS
 62
    7
 10
1088.1305143921076
 20
855.42310540500534
 11
1088.1364058267138
 21
855.41677008991223
  0
LINE
  8
_0-0_0
  6
CONTINUOUS
 62
    7
 10
1088.1364058267138
 20
855.41677008991223
 11
1088.1399594107833
 21
855.4143414015665
  0
LINE
  8
_0-0_0
  6
CONTINUOUS
 62
    7
 10
1088.2065280664151
 20
855.37600706241187
 11
1088.139959410915
 21
855.41434140191199
  0
LINE
  8
_0-0_0
  6
CONTINUOUS
 62
    7
 10
1128.6064243504151
 20
837.4737043199118
 11
1088.340644454415
 21
860.66122482241189
  0
LINE
  8
_0-0_0
  6
CONTINUOUS
 62
    7
 10
1088.3067752179149
 20
860.64172082641198
 11
1088.340644454415
 21
860.66122482241189
  0
LINE
  8
_0-0_0
  6
CONTINUOUS
 62
    7
 10
1128.5906927004152
 20
837.44375558241188
 11
1088.3067752179149
 21
860.64172082641198
  0
LINE
  8
_0-0_0
  6
CONTINUOUS
 62
    7
 10
1088.3067752181295
 20
860.64172082670131
 11
1088.3067752181295
 21
860.64172082670131
  0
LINE
  8
_0-0_0
  6
CONTINUOUS
 62
    7
 10
1088.3067752181295
 20
860.64172082670131
 11
1088.2944967021637
 21
860.63340825987052
  0
LINE
  8
_0-0_0
  6
CONTINUOUS
 62
    7
 10
1088.2944967021637
 20
860.63340825987052
 11
1088.2825912369651
 21
860.62286423189084
  0
LINE
  8
_0-0_0
  6
CONTINUOUS
 62
    7
 10
1088.2825912369651
 20
860.62286423189084
 11
1088.2714205640697
 21
860.61040911771692
  0
LINE
  8
_0-0_0
  6
CONTINUOUS
 62
    7
 10
1088.2714205640697
 20
860.61040911771692
 11
1088.2613240987204
 21
860.59642135969033
  0
LINE
  8
_0-0_0
  6
CONTINUOUS
 62
    7
 10
1088.2613240987204
 20
860.59642135969033
 11
1088.2526086169082
 21
860.58132596876043
  0
LINE
  8
_0-0_0
  6
CONTINUOUS
 62
    7
 10
1088.2526086169082
 20
860.58132596876043
 11
1088.2455389341375
 21
860.56558161074224
  0
LINE
  8
_0-0_0
  6
CONTINUOUS
 62
    7
 10
1088.2455389341375
 20
860.56558161074224
 11
1088.2403298591418
 21
860.54966666998689
  0
LINE
  8
_0-0_0
  6
CONTINUOUS
 62
    7
 10
1088.2403298591418
 20
860.54966666998689
 11
1088.2371396670289
 21
860.53406471391599
  0
LINE
  8
_0-0_0
  6
CONTINUOUS
 62
    7
 10
1088.2371396670289
 20
860.53406471391599
 11
1088.236510017283
 21
860.52865960393557
  0
LINE
  8
_0-0_0
  6
CONTINUOUS
 62
    7
 10
1128.5691277474149
 20
837.30264975241186
 11
1088.2365100169149
 21
860.52865960391181
  0
LINE
  8
_0-0_0
  6
CONTINUOUS
 62
    7
 10
1088.2365100170984
 20
860.52865960365465
 11
1088.2365100170984
 21
860.52865960365465
  0
LINE
  8
_0-0_0
  6
CONTINUOUS
 62
    7
 10
1088.2365100170984
 20
860.52865960365465
 11
1088.2025675161987
 21
860.29945718335841
  0
LINE
  8
_0-0_0
  6
CONTINUOUS
 62
    7
 10
1088.2025675161987
 20
860.29945718335841
 11
1088.1992230980122
 21
860.24761900802855
  0
LINE
  8
_0-0_0
  6
CONTINUOUS
 62
    7
 10
1128.5691277474149
 20
837.00013704791194
 11
1088.1992230979151
 21
860.2476190079119
  0
LINE
  8
_0-0_0
  6
CONTINUOUS
 62
    7
 10
1128.5750203039151
 20
832.82561464041179
 11
1128.5750203039151
 21
832.21076292841189
  0
LINE
  8
_0-0_0
  6
CONTINUOUS
 62
    7
 10
1088.1992230979151
 20
855.46163818591196
 11
1088.1992230979151
 21
860.2476190079119
  0
LINE
  8
_0-0_0
  6
CONTINUOUS
 62
    7
 10
1128.5750203039151
 20
832.21076292841189
 11
1088.1992230979151
 21
855.46163818591196
  0
LINE
  8
_0-0_0
  6
CONTINUOUS
 62
    7
 10
1128.5750203038437
 20
832.21076292817144
 11
1128.5750203038437
 21
832.21076292817144
  0
LINE
  8
_0-0_0
  6
CONTINUOUS
 62
    7
 10
1128.5750203038437
 20
832.21076292817144
 11
1128.6015164155037
 21
832.01493888460254
  0
LINE
  8
_0-0_0
  6
CONTINUOUS
 62
    7
 10
1128.6015164155037
 20
832.01493888460254
 11
1128.6077320437698
 21
831.98959911564861
  0
LINE
  8
_0-0_0
  6
CONTINUOUS
 62
    7
 10
1088.1992230978371
 20
855.46163818566765
 11
1088.1992230978371
 21
855.46163818566765
  0
LINE
  8
_0-0_0
  6
CONTINUOUS
 62
    7
 10
1088.1992230978371
 20
855.46163818566765
 11
1088.2257192094973
 21
855.26581414209806
  0
LINE
  8
_0-0_0
  6
CONTINUOUS
 62
    7
 10
1088.2257192094973
 20
855.26581414209806
 11
1088.2319348377632
 21
855.24047437314447
  0
LINE
  8
_0-0_0
  6
CONTINUOUS
 62
    7
 10
1128.6877559634151
 20
831.94351640541185
 11
1128.716441659915
 21
831.96003539941193
  0
LINE
  8
_0-0_0
  6
CONTINUOUS
 62
    7
 10
1128.716441659915
 20
831.96003539941193
 11
1128.716441659915
 21
832.04789931391189
  0
LINE
  8
_0-0_0
  6
CONTINUOUS
 62
    7
 10
1128.6398384253168
 20
832.12030931176229
 11
1128.6398384253168
 21
832.12030931176229
  0
LINE
  8
_0-0_0
  6
CONTINUOUS
 62
    7
 10
1128.6398384253168
 20
832.12030931176229
 11
1128.6407336370552
 21
832.10899436588499
  0
LINE
  8
_0-0_0
  6
CONTINUOUS
 62
    7
 10
1128.6407336370552
 20
832.10899436588499
 11
1128.6433920717161
 21
832.09905425522185
  0
LINE
  8
_0-0_0
  6
CONTINUOUS
 62
    7
 10
1128.6433920717161
 20
832.09905425522185
 11
1128.6477329541069
 21
832.09079100500548
  0
LINE
  8
_0-0_0
  6
CONTINUOUS
 62
    7
 10
1128.6477329541069
 20
832.09079100500548
 11
1128.653624388713
 21
832.08445568991226
  0
LINE
  8
_0-0_0
  6
CONTINUOUS
 62
    7
 10
1128.653624388713
 20
832.08445568991226
 11
1128.6571779727826
 21
832.08202700156653
  0
LINE
  8
_0-0_0
  6
CONTINUOUS
 62
    7
 10
1128.639838425415
 20
832.1203093114118
 11
1128.639838425415
 21
832.78828836641184
  0
LINE
  8
_0-0_0
  6
CONTINUOUS
 62
    7
 10
1128.5691277474149
 20
832.82900793791191
 11
1128.5691277474149
 21
837.35276869541178
  0
LINE
  8
_0-0_0
  6
CONTINUOUS
 62
    7
 10
1128.6869788774167
 20
837.55689250205114
 11
1128.6869788774167
 21
837.55689250205114
  0
LINE
  8
_0-0_0
  6
CONTINUOUS
 62
    7
 10
1128.6869788774167
 20
837.55689250205114
 11
1128.6665142434221
 21
837.54303764013457
  0
LINE
  8
_0-0_0
  6
CONTINUOUS
 62
    7
 10
1128.6665142434221
 20
837.54303764013457
 11
1128.6466714169757
 21
837.52546362523821
  0
LINE
  8
_0-0_0
  6
CONTINUOUS
 62
    7
 10
1128.6466714169757
 20
837.52546362523821
 11
1128.6280533123183
 21
837.50470443491178
  0
LINE
  8
_0-0_0
  6
CONTINUOUS
 62
    7
 10
1128.6280533123183
 20
837.50470443491178
 11
1128.6112256311387
 21
837.48139082664874
  0
LINE
  8
_0-0_0
  6
CONTINUOUS
 62
    7
 10
1128.6112256311387
 20
837.48139082664874
 11
1128.5966996740141
 21
837.45623117263892
  0
LINE
  8
_0-0_0
  6
CONTINUOUS
 62
    7
 10
1128.5966996740141
 20
837.45623117263892
 11
1128.5849168048014
 21
837.42998993623791
  0
LINE
  8
_0-0_0
  6
CONTINUOUS
 62
    7
 10
1128.5849168048014
 20
837.42998993623791
 11
1128.5762350400191
 21
837.40346444413512
  0
LINE
  8
_0-0_0
  6
CONTINUOUS
 62
    7
 10
1128.5762350400191
 20
837.40346444413512
 11
1128.570918170697
 21
837.37746065998555
  0
LINE
  8
_0-0_0
  6
CONTINUOUS
 62
    7
 10
1128.570918170697
 20
837.37746065998555
 11
1128.5691277472189
 21
837.35276869561232
  0
LINE
  8
_0-0_0
  6
CONTINUOUS
 62
    7
 10
1128.6869788774151
 20
837.55689250191176
 11
1129.4647963369152
 21
838.00480778691178
  0
LINE
  8
_0-0_0
  6
CONTINUOUS
 62
    7
 10
1129.5479683721791
 20
838.01298050560251
 11
1129.5479683721791
 21
838.01298050560251
  0
LINE
  8
_0-0_0
  6
CONTINUOUS
 62
    7
 10
1129.5479683721791
 20
838.01298050560251
 11
1129.5322061655986
 21
838.01913549013397
  0
LINE
  8
_0-0_0
  6
CONTINUOUS
 62
    7
 10
1129.5322061655986
 20
838.01913549013397
 11
1129.5143957454845
 21
838.02071500870931
  0
LINE
  8
_0-0_0
  6
CONTINUOUS
 62
    7
 10
1129.5143957454845
 20
838.02071500870931
 11
1129.4950782724392
 21
838.01767106845579
  0
LINE
  8
_0-0_0
  6
CONTINUOUS
 62
    7
 10
1129.4950782724392
 20
838.01767106845579
 11
1129.4748406981068
 21
838.01009615795771
  0
LINE
  8
_0-0_0
  6
CONTINUOUS
 62
    7
 10
1129.4748406981068
 20
838.01009615795771
 11
1129.4647963369168
 21
838.00480778705104
  0
LINE
  8
_0-0_0
  6
CONTINUOUS
 62
    7
 10
1129.7240688234151
 20
837.85497674241184
 11
1129.7240688234151
 21
833.33121598491186
  0
LINE
  8
_0-0_0
  6
CONTINUOUS
 62
    7
 10
1129.7240688234151
 20
833.33121598491186
 11
1129.653358144915
 21
833.2904964134118
  0
LINE
  8
_0-0_0
  6
CONTINUOUS
 62
    7
 10
1129.653358144915
 20
833.2904964134118
 11
1129.653358144915
 21
832.54107821591196
  0
LINE
  8
_0-0_0
  6
CONTINUOUS
 62
    7
 10
1128.639838425415
 20
832.1203093114118
 11
1128.7812597814152
 21
832.03887016891189
  0
LINE
  8
_0-0_0
  6
CONTINUOUS
 62
    7
 10
1128.7812597814152
 20
832.03887016891189
 11
1128.7812597814152
 21
832.78828836641184
  0
LINE
  8
_0-0_0
  6
CONTINUOUS
 62
    7
 10
1128.7812597814152
 20
832.78828836641184
 11
1128.7105491034151
 21
832.74756879541189
  0
LINE
  8
_0-0_0
  6
CONTINUOUS
 62
    7
 10
1128.5691277474149
 20
832.82900793791191
 11
1128.7105491034151
 21
832.74756879541189
  0
LINE
  8
_0-0_0
  6
CONTINUOUS
 62
    7
 10
1128.7105491034151
 20
837.27132955291176
 11
1128.5691277474149
 21
837.35276869541178
  0
LINE
  8
_0-0_0
  6
CONTINUOUS
 62
    7
 10
1128.7105491034151
 20
832.74756879541189
 11
1128.7105491034151
 21
837.27132955291176
  0
LINE
  8
_0-0_0
  6
CONTINUOUS
 62
    7
 10
1128.8284002339166
 20
837.47545335905124
 11
1128.8284002339166
 21
837.47545335905124
  0
LINE
  8
_0-0_0
  6
CONTINUOUS
 62
    7
 10
1128.8284002339166
 20
837.47545335905124
 11
1128.807935599922
 21
837.46159849713467
  0
LINE
  8
_0-0_0
  6
CONTINUOUS
 62
    7
 10
1128.807935599922
 20
837.46159849713467
 11
1128.7880927734756
 21
837.44402448223831
  0
LINE
  8
_0-0_0
  6
CONTINUOUS
 62
    7
 10
1128.7880927734756
 20
837.44402448223831
 11
1128.7694746688184
 21
837.42326529191188
  0
LINE
  8
_0-0_0
  6
CONTINUOUS
 62
    7
 10
1128.7694746688184
 20
837.42326529191188
 11
1128.7526469876386
 21
837.39995168364885
  0
LINE
  8
_0-0_0
  6
CONTINUOUS
 62
    7
 10
1128.7526469876386
 20
837.39995168364885
 11
1128.738121030514
 21
837.37479202963902
  0
LINE
  8
_0-0_0
  6
CONTINUOUS
 62
    7
 10
1128.738121030514
 20
837.37479202963902
 11
1128.7263381613013
 21
837.34855079323801
  0
LINE
  8
_0-0_0
  6
CONTINUOUS
 62
    7
 10
1128.7263381613013
 20
837.34855079323801
 11
1128.717656396519
 21
837.32202530113522
  0
LINE
  8
_0-0_0
  6
CONTINUOUS
 62
    7
 10
1128.717656396519
 20
837.32202530113522
 11
1128.7123395271969
 21
837.29602151698566
  0
LINE
  8
_0-0_0
  6
CONTINUOUS
 62
    7
 10
1128.7123395271969
 20
837.29602151698566
 11
1128.7105491037191
 21
837.27132955261242
  0
LINE
  8
_0-0_0
  6
CONTINUOUS
 62
    7
 10
1128.6869788774151
 20
837.55689250191176
 11
1128.828400233915
 21
837.47545335891186
  0
LINE
  8
_0-0_0
  6
CONTINUOUS
 62
    7
 10
1129.6062176929151
 20
837.92336864441176
 11
1129.4647963369152
 21
838.00480778691178
  0
LINE
  8
_0-0_0
  6
CONTINUOUS
 62
    7
 10
1128.828400233915
 20
837.47545335891186
 11
1129.6062176929151
 21
837.92336864441176
  0
LINE
  8
_0-0_0
  6
CONTINUOUS
 62
    7
 10
1129.7240688231111
 20
837.85497674221119
 11
1129.7240688231111
 21
837.85497674221119
  0
LINE
  8
_0-0_0
  6
CONTINUOUS
 62
    7
 10
1129.7240688231111
 20
837.85497674221119
 11
1129.7222783996337
 21
837.87760663396591
  0
LINE
  8
_0-0_0
  6
CONTINUOUS
 62
    7
 10
1129.7222783996337
 20
837.87760663396591
 11
1129.7169615303121
 21
837.89748685529218
  0
LINE
  8
_0-0_0
  6
CONTINUOUS
 62
    7
 10
1129.7169615303121
 20
837.89748685529218
 11
1129.7082797655305
 21
837.91401335572481
  0
LINE
  8
_0-0_0
  6
CONTINUOUS
 62
    7
 10
1129.7082797655305
 20
837.91401335572481
 11
1129.6964968963181
 21
837.92668398591104
  0
LINE
  8
_0-0_0
  6
CONTINUOUS
 62
    7
 10
1129.6964968963181
 20
837.92668398591104
 11
1129.6819709391941
 21
837.93511375516436
  0
LINE
  8
_0-0_0
  6
CONTINUOUS
 62
    7
 10
1129.6819709391941
 20
837.93511375516436
 11
1129.6651432580147
 21
837.9390465292115
  0
LINE
  8
_0-0_0
  6
CONTINUOUS
 62
    7
 10
1129.6651432580147
 20
837.9390465292115
 11
1129.6465251533575
 21
837.93836281270318
  0
LINE
  8
_0-0_0
  6
CONTINUOUS
 62
    7
 10
1129.6465251533575
 20
837.93836281270318
 11
1129.6266823269113
 21
837.93308338001963
  0
LINE
  8
_0-0_0
  6
CONTINUOUS
 62
    7
 10
1129.6266823269113
 20
837.93308338001963
 11
1129.6062176929169
 21
837.92336864405126
  0
LINE
  8
_0-0_0
  6
CONTINUOUS
 62
    7
 10
1129.6062176929169
 20
837.92336864405126
 11
1129.6062176929167
 21
837.92336864405126
  0
LINE
  8
_0-0_0
  6
CONTINUOUS
 62
    7
 10
1128.7812597818169
 20
832.03887016876183
 11
1128.7812597818169
 21
832.03887016876183
  0
LINE
  8
_0-0_0
  6
CONTINUOUS
 62
    7
 10
1128.7812597818169
 20
832.03887016876183
 11
1128.7821549935558
 21
832.02755522288452
  0
LINE
  8
_0-0_0
  6
CONTINUOUS
 62
    7
 10
1128.7821549935558
 20
832.02755522288452
 11
1128.7848134282166
 21
832.01761511222139
  0
LINE
  8
_0-0_0
  6
CONTINUOUS
 62
    7
 10
1128.7848134282166
 20
832.01761511222139
 11
1128.7891543106075
 21
832.00935186200513
  0
LINE
  8
_0-0_0
  6
CONTINUOUS
 62
    7
 10
1128.7891543106075
 20
832.00935186200513
 11
1128.7950457452136
 21
832.00301654691202
  0
LINE
  8
_0-0_0
  6
CONTINUOUS
 62
    7
 10
1128.7950457452136
 20
832.00301654691202
 11
1128.8023087237756
 21
831.99880166228547
  0
LINE
  8
_0-0_0
  6
CONTINUOUS
 62
    7
 10
1128.8023087237756
 20
831.99880166228547
 11
1128.8107225643655
 21
831.99683527526201
  0
LINE
  8
_0-0_0
  6
CONTINUOUS
 62
    7
 10
1128.8107225643655
 20
831.99683527526201
 11
1128.8200316166939
 21
831.99717713351617
  0
LINE
  8
_0-0_0
  6
CONTINUOUS
 62
    7
 10
1128.8200316166939
 20
831.99717713351617
 11
1128.829953029917
 21
831.999816849858
  0
LINE
  8
_0-0_0
  6
CONTINUOUS
 62
    7
 10
1128.829953029917
 20
831.999816849858
 11
1128.8401853469142
 21
832.00467421784207
  0
LINE
  8
_0-0_0
  6
CONTINUOUS
 62
    7
 10
1129.594432579915
 20
832.43901631241192
 11
1128.8401853469149
 21
832.00467421791188
  0
LINE
  8
_0-0_0
  6
CONTINUOUS
 62
    7
 10
1129.5944325799143
 20
832.43901631284222
 11
1129.5944325799143
 21
832.43901631284222
  0
LINE
  8
_0-0_0
  6
CONTINUOUS
 62
    7
 10
1129.5944325799143
 20
832.43901631284222
 11
1129.6046648969117
 21
832.44594374380062
  0
LINE
  8
_0-0_0
  6
CONTINUOUS
 62
    7
 10
1129.6046648969117
 20
832.44594374380062
 11
1129.6145863101348
 21
832.4547307512488
  0
LINE
  8
_0-0_0
  6
CONTINUOUS
 62
    7
 10
1129.6145863101348
 20
832.4547307512488
 11
1129.6238953624635
 21
832.46511034641207
  0
LINE
  8
_0-0_0
  6
CONTINUOUS
 62
    7
 10
1129.6238953624635
 20
832.46511034641207
 11
1129.6323092030534
 21
832.47676715054353
  0
LINE
  8
_0-0_0
  6
CONTINUOUS
 62
    7
 10
1129.6323092030534
 20
832.47676715054353
 11
1129.6395721816156
 21
832.4893469775485
  0
LINE
  8
_0-0_0
  6
CONTINUOUS
 62
    7
 10
1129.6395721816156
 20
832.4893469775485
 11
1129.645463616222
 21
832.50246759574906
  0
LINE
  8
_0-0_0
  6
CONTINUOUS
 62
    7
 10
1129.645463616222
 20
832.50246759574906
 11
1129.649804498613
 21
832.51573034180046
  0
LINE
  8
_0-0_0
  6
CONTINUOUS
 62
    7
 10
1129.649804498613
 20
832.51573034180046
 11
1129.6524629332741
 21
832.52873223387518
  0
LINE
  8
_0-0_0
  6
CONTINUOUS
 62
    7
 10
1129.6524629332741
 20
832.52873223387518
 11
1129.653358145013
 21
832.5410782160618
  0
LINE
  8
_0-0_0
  6
CONTINUOUS
 62
    7
 10
1129.6893897284148
 20
837.93154136291173
 11
1129.5479683719149
 21
838.01298050541186
  0
LINE
  8
_0-0_0
  6
CONTINUOUS
 62
    7
 10
1128.7985993289153
 20
832.00058785841179
 11
1128.6571779729151
 21
832.08202700141191
  0
LINE
  8
_0-0_0
  6
CONTINUOUS
 62
    7
 10
1129.1737771694149
 20
832.63480649391181
 11
1129.1737771694149
 21
832.59657014241179
  0
LINE
  8
_0-0_0
  6
CONTINUOUS
 62
    7
 10
1129.225832598415
 20
832.68626890841187
 11
1129.192633349915
 21
832.66715073291175
  0
LINE
  8
_0-0_0
  6
CONTINUOUS
 62
    7
 10
1129.192633349915
 20
832.76557195791178
 11
1129.2444878474152
 21
832.79543297691191
  0
LINE
  8
_0-0_0
  6
CONTINUOUS
 62
    7
 10
1129.2444878474152
 20
832.79543297691191
 11
1129.2444878474152
 21
832.67552606491176
  0
LINE
  8
_0-0_0
  6
CONTINUOUS
 62
    7
 10
1129.192633349915
 20
832.70538708391188
 11
1129.2444878474152
 21
832.67552606491176
  0
LINE
  8
_0-0_0
  6
CONTINUOUS
 62
    7
 10
1129.2444878474152
 20
832.67552606491176
 11
1129.348196841915
 21
832.73524810291189
  0
LINE
  8
_0-0_0
  6
CONTINUOUS
 62
    7
 10
1129.348196841915
 20
832.73524810291189
 11
1129.348196841915
 21
832.67529464741187
  0
LINE
  8
_0-0_0
  6
CONTINUOUS
 62
    7
 10
1129.2961414129151
 20
832.70527137541182
 11
1129.348196841915
 21
832.67529464741187
  0
LINE
  8
_0-0_0
  6
CONTINUOUS
 62
    7
 10
1129.348196841915
 20
832.67529464741187
 11
1129.2444878474152
 21
832.61557260941185
  0
LINE
  8
_0-0_0
  6
CONTINUOUS
 62
    7
 10
1129.1924324184151
 20
832.6455493374118
 11
1129.2444878474152
 21
832.61557260941185
  0
LINE
  8
_0-0_0
  6
CONTINUOUS
 62
    7
 10
1129.2444878474152
 20
832.61557260941185
 11
1129.2444878474152
 21
832.49566569741193
  0
LINE
  8
_0-0_0
  6
CONTINUOUS
 62
    7
 10
1129.192633349915
 20
832.52552671641183
 11
1129.2444878474152
 21
832.49566569741193
  0
LINE
  8
_0-0_0
  6
CONTINUOUS
 62
    7
 10
1129.2444878474152
 20
832.49566569741193
 11
1129.192633349915
 21
832.46580467841181
  0
LINE
  8
_0-0_0
  6
CONTINUOUS
 62
    7
 10
1129.192633349915
 20
832.46580467841181
 11
1129.192633349915
 21
832.58571159041184
  0
LINE
  8
_0-0_0
  6
CONTINUOUS
 62
    7
 10
1129.1405779209151
 20
832.61568831841191
 11
1129.192633349915
 21
832.58571159041184
  0
LINE
  8
_0-0_0
  6
CONTINUOUS
 62
    7
 10
1129.192633349915
 20
832.58571159041184
 11
1129.0889243554149
 21
832.52598955241182
  0
LINE
  8
_0-0_0
  6
CONTINUOUS
 62
    7
 10
1129.0889243554149
 20
832.52598955241182
 11
1129.0889243554149
 21
832.58594300791185
  0
LINE
  8
_0-0_0
  6
CONTINUOUS
 62
    7
 10
1129.0889243554149
 20
832.58594300791185
 11
1129.192633349915
 21
832.64566504591186
  0
LINE
  8
_0-0_0
  6
CONTINUOUS
 62
    7
 10
1129.192633349915
 20
832.64566504591186
 11
1129.192633349915
 21
832.76557195791178
  0
LINE
  8
_0-0_0
  6
CONTINUOUS
 62
    7
 10
1129.0522165279151
 20
832.34175768241186
 11
1129.021686682415
 21
832.35933865141191
  0
LINE
  8
_0-0_0
  6
CONTINUOUS
 62
    7
 10
1129.3849046694151
 20
832.91947997291185
 11
1129.3552581484152
 21
832.93655226891189
  0
LINE
  8
_0-0_0
  6
CONTINUOUS
 62
    7
 10
1129.1737771694149
 20
833.92925610791178
 11
1129.1737771694149
 21
833.89101975691187
  0
LINE
  8
_0-0_0
  6
CONTINUOUS
 62
    7
 10
1129.225832598415
 20
833.98071852291184
 11
1129.192633349915
 21
833.96160034741183
  0
LINE
  8
_0-0_0
  6
CONTINUOUS
 62
    7
 10
1129.192633349915
 20
834.06002157191187
 11
1129.2444878474152
 21
834.08988259091188
  0
LINE
  8
_0-0_0
  6
CONTINUOUS
 62
    7
 10
1129.2444878474152
 20
834.08988259091188
 11
1129.2444878474152
 21
833.96997567941184
  0
LINE
  8
_0-0_0
  6
CONTINUOUS
 62
    7
 10
1129.192633349915
 20
833.99983669841185
 11
1129.2444878474152
 21
833.96997567941184
  0
LINE
  8
_0-0_0
  6
CONTINUOUS
 62
    7
 10
1129.2444878474152
 20
833.96997567941184
 11
1129.348196841915
 21
834.02969771741186
  0
LINE
  8
_0-0_0
  6
CONTINUOUS
 62
    7
 10
1129.348196841915
 20
834.02969771741186
 11
1129.348196841915
 21
833.96974426141184
  0
LINE
  8
_0-0_0
  6
CONTINUOUS
 62
    7
 10
1129.2961414129151
 20
833.99972098941191
 11
1129.348196841915
 21
833.96974426141184
  0
LINE
  8
_0-0_0
  6
CONTINUOUS
 62
    7
 10
1129.348196841915
 20
833.96974426141184
 11
1129.2444878474152
 21
833.91002222341182
  0
LINE
  8
_0-0_0
  6
CONTINUOUS
 62
    7
 10
1129.1924324184151
 20
833.93999895141189
 11
1129.2444878474152
 21
833.91002222341182
  0
LINE
  8
_0-0_0
  6
CONTINUOUS
 62
    7
 10
1129.2444878474152
 20
833.91002222341182
 11
1129.2444878474152
 21
833.79011531191179
  0
LINE
  8
_0-0_0
  6
CONTINUOUS
 62
    7
 10
1129.192633349915
 20
833.81997633091191
 11
1129.2444878474152
 21
833.79011531191179
  0
LINE
  8
_0-0_0
  6
CONTINUOUS
 62
    7
 10
1129.2444878474152
 20
833.79011531191179
 11
1129.192633349915
 21
833.76025429291189
  0
LINE
  8
_0-0_0
  6
CONTINUOUS
 62
    7
 10
1129.192633349915
 20
833.76025429291189
 11
1129.192633349915
 21
833.88016120441182
  0
LINE
  8
_0-0_0
  6
CONTINUOUS
 62
    7
 10
1129.1405779209151
 20
833.91013793241188
 11
1129.192633349915
 21
833.88016120441182
  0
LINE
  8
_0-0_0
  6
CONTINUOUS
 62
    7
 10
1129.192633349915
 20
833.88016120441182
 11
1129.0889243554149
 21
833.8204391664118
  0
LINE
  8
_0-0_0
  6
CONTINUOUS
 62
    7
 10
1129.0889243554149
 20
833.8204391664118
 11
1129.0889243554149
 21
833.88039262241181
  0
LINE
  8
_0-0_0
  6
CONTINUOUS
 62
    7
 10
1129.0889243554149
 20
833.88039262241181
 11
1129.192633349915
 21
833.94011466041195
  0
LINE
  8
_0-0_0
  6
CONTINUOUS
 62
    7
 10
1129.192633349915
 20
833.94011466041195
 11
1129.192633349915
 21
834.06002157191187
  0
LINE
  8
_0-0_0
  6
CONTINUOUS
 62
    7
 10
1129.0522165279151
 20
833.63620729641183
 11
1129.021686682415
 21
833.65378826541189
  0
LINE
  8
_0-0_0
  6
CONTINUOUS
 62
    7
 10
1129.3849046694151
 20
834.21392958741182
 11
1129.3552581484152
 21
834.23100188291186
  0
LINE
  8
_0-0_0
  6
CONTINUOUS
 62
    7
 10
1167.3657198084151
 20
816.64676147541183
 11
1129.3705154324152
 21
838.52674449641187
  0
LINE
  8
_0-0_0
  6
CONTINUOUS
 62
    7
 10
1167.3657198084151
 20
816.60775348341189
 11
1129.3705154324152
 21
838.48773650441194
  0
LINE
  8
_0-0_0
  6
CONTINUOUS
 62
    7
 10
1167.3657198084151
 20
816.45422922241186
 11
1129.3705154324152
 21
838.33421224341179
  0
LINE
  8
_0-0_0
  6
CONTINUOUS
 62
    7
 10
1167.3657198084151
 20
816.15171651841183
 11
1129.7240688234151
 21
837.82810168241189
  0
LINE
  8
_0-0_0
  6
CONTINUOUS
 62
    7
 10
1129.441005025915
 20
837.99110728241191
 11
1129.3705154324152
 21
838.03169953941176
  0
LINE
  8
_0-0_0
  6
CONTINUOUS
 62
    7
 10
1167.012166417915
 20
811.56933355291187
 11
1129.653358144915
 21
833.08284043141179
  0
LINE
  8
_0-0_0
  6
CONTINUOUS
 62
    7
 10
1167.012166417915
 20
811.35270928291197
 11
1129.653358144915
 21
832.86621616191177
  0
LINE
  8
_0-0_0
  6
CONTINUOUS
 62
    7
 10
1167.012166417915
 20
811.32739635641189
 11
1129.653358144915
 21
832.84090323491182
  0
LINE
  8
_0-0_0
  6
CONTINUOUS
 62
    7
 10
1167.2714389044151
 20
815.3375797194119
 11
1167.3657198084151
 21
815.39187248091184
  0
LINE
  8
_0-0_0
  6
CONTINUOUS
 62
    7
 10
1167.2714389044167
 20
815.3375797190514
 11
1167.2714389044167
 21
815.3375797190514
  0
LINE
  8
_0-0_0
  6
CONTINUOUS
 62
    7
 10
1167.2714389044167
 20
815.3375797190514
 11
1167.2509742704221
 21
815.32372485713472
  0
LINE
  8
_0-0_0
  6
CONTINUOUS
 62
    7
 10
1167.2509742704221
 20
815.32372485713472
 11
1167.2311314439757
 21
815.30615084223836
  0
LINE
  8
_0-0_0
  6
CONTINUOUS
 62
    7
 10
1167.2311314439757
 20
815.30615084223836
 11
1167.2125133393183
 21
815.28539165191193
  0
LINE
  8
_0-0_0
  6
CONTINUOUS
 62
    7
 10
1167.2125133393183
 20
815.28539165191193
 11
1167.1956856581387
 21
815.26207804364889
  0
LINE
  8
_0-0_0
  6
CONTINUOUS
 62
    7
 10
1167.1956856581387
 20
815.26207804364889
 11
1167.1811597010139
 21
815.23691838963895
  0
LINE
  8
_0-0_0
  6
CONTINUOUS
 62
    7
 10
1167.1811597010139
 20
815.23691838963895
 11
1167.1693768318014
 21
815.21067715323795
  0
LINE
  8
_0-0_0
  6
CONTINUOUS
 62
    7
 10
1167.1693768318014
 20
815.21067715323795
 11
1167.1606950670191
 21
815.18415166113516
  0
LINE
  8
_0-0_0
  6
CONTINUOUS
 62
    7
 10
1167.1606950670191
 20
815.18415166113516
 11
1167.155378197697
 21
815.15814787698559
  0
LINE
  8
_0-0_0
  6
CONTINUOUS
 62
    7
 10
1167.155378197697
 20
815.15814787698559
 11
1167.1535877742189
 21
815.13345591261224
  0
LINE
  8
_0-0_0
  6
CONTINUOUS
 62
    7
 10
1167.1535877739149
 20
810.60969515541182
 11
1167.1535877739149
 21
815.13345591291181
  0
LINE
  8
_0-0_0
  6
CONTINUOUS
 62
    7
 10
1167.1594803304151
 20
810.61308845291182
 11
1167.1535877739149
 21
810.60969515541182
  0
LINE
  8
_0-0_0
  6
CONTINUOUS
 62
    7
 10
1167.1635136859151
 20
809.93600014791184
 11
1167.0828770959151
 21
809.98243567191184
  0
LINE
  8
_0-0_0
  6
CONTINUOUS
 62
    7
 10
1167.0828770959151
 20
809.98243567191184
 11
1167.0828770959151
 21
810.65041472691189
  0
LINE
  8
_0-0_0
  6
CONTINUOUS
 62
    7
 10
1167.1535877739149
 20
810.60969515541182
 11
1167.012166417915
 21
810.69113429791184
  0
LINE
  8
_0-0_0
  6
CONTINUOUS
 62
    7
 10
1167.012166417915
 20
815.21489505541183
 11
1167.1535877739149
 21
815.13345591291181
  0
LINE
  8
_0-0_0
  6
CONTINUOUS
 62
    7
 10
1167.012166417915
 20
810.69113429791184
 11
1167.012166417915
 21
815.21489505541183
  0
LINE
  8
_0-0_0
  6
CONTINUOUS
 62
    7
 10
1167.1300175479163
 20
815.41901886205107
 11
1167.1300175479163
 21
815.41901886205107
  0
LINE
  8
_0-0_0
  6
CONTINUOUS
 62
    7
 10
1167.1300175479163
 20
815.41901886205107
 11
1167.1095529139217
 21
815.4051640001345
  0
LINE
  8
_0-0_0
  6
CONTINUOUS
 62
    7
 10
1167.1095529139217
 20
815.4051640001345
 11
1167.0897100874753
 21
815.38758998523803
  0
LINE
  8
_0-0_0
  6
CONTINUOUS
 62
    7
 10
1167.0897100874753
 20
815.38758998523803
 11
1167.0710919828181
 21
815.3668307949116
  0
LINE
  8
_0-0_0
  6
CONTINUOUS
 62
    7
 10
1167.0710919828181
 20
815.3668307949116
 11
1167.0542643016383
 21
815.34351718664856
  0
LINE
  8
_0-0_0
  6
CONTINUOUS
 62
    7
 10
1167.0542643016383
 20
815.34351718664856
 11
1167.0397383445138
 21
815.31835753263862
  0
LINE
  8
_0-0_0
  6
CONTINUOUS
 62
    7
 10
1167.0397383445138
 20
815.31835753263862
 11
1167.0279554753012
 21
815.29211629623762
  0
LINE
  8
_0-0_0
  6
CONTINUOUS
 62
    7
 10
1167.0279554753012
 20
815.29211629623762
 11
1167.0192737105189
 21
815.26559080413494
  0
LINE
  8
_0-0_0
  6
CONTINUOUS
 62
    7
 10
1167.0192737105189
 20
815.26559080413494
 11
1167.0139568411968
 21
815.23958701998537
  0
LINE
  8
_0-0_0
  6
CONTINUOUS
 62
    7
 10
1167.0139568411968
 20
815.23958701998537
 11
1167.0121664177188
 21
815.21489505561214
  0
LINE
  8
_0-0_0
  6
CONTINUOUS
 62
    7
 10
1167.2714389044151
 20
815.3375797194119
 11
1167.130017547915
 21
815.4190188619118
  0
LINE
  8
_0-0_0
  6
CONTINUOUS
 62
    7
 10
1167.130017547915
 20
815.4190188619118
 11
1167.3657198084151
 21
815.55475076641187
  0
LINE
  8
_0-0_0
  6
CONTINUOUS
 62
    7
 10
1167.0828770958166
 20
809.982435671762
 11
1167.0828770958166
 21
809.982435671762
  0
LINE
  8
_0-0_0
  6
CONTINUOUS
 62
    7
 10
1167.0828770958166
 20
809.982435671762
 11
1167.0837723075555
 21
809.9711207258847
  0
LINE
  8
_0-0_0
  6
CONTINUOUS
 62
    7
 10
1167.0837723075555
 20
809.9711207258847
 11
1167.0864307422161
 21
809.96118061522167
  0
LINE
  8
_0-0_0
  6
CONTINUOUS
 62
    7
 10
1167.0864307422161
 20
809.96118061522167
 11
1167.0907716246072
 21
809.95291736500553
  0
LINE
  8
_0-0_0
  6
CONTINUOUS
 62
    7
 10
1167.0907716246072
 20
809.95291736500553
 11
1167.0966630592133
 21
809.94658204991242
  0
LINE
  8
_0-0_0
  6
CONTINUOUS
 62
    7
 10
1167.0966630592133
 20
809.94658204991242
 11
1167.1002166432826
 21
809.9441533615668
  0
LINE
  8
_0-0_0
  6
CONTINUOUS
 62
    7
 10
1167.1667852989151
 20
809.90581902241183
 11
1167.1002166434152
 21
809.94415336141184
  0
LINE
  8
_0-0_0
  6
CONTINUOUS
 62
    7
 10
1207.5666815829151
 20
792.00351627991176
 11
1167.300901686915
 21
815.19103678241185
  0
LINE
  8
_0-0_0
  6
CONTINUOUS
 62
    7
 10
1167.2670324504151
 20
815.17153278641194
 11
1167.300901686915
 21
815.19103678241185
  0
LINE
  8
_0-0_0
  6
CONTINUOUS
 62
    7
 10
1207.550949932915
 20
791.97356754241184
 11
1167.2670324504151
 21
815.17153278641194
  0
LINE
  8
_0-0_0
  6
CONTINUOUS
 62
    7
 10
1167.2670324506291
 20
815.17153278620082
 11
1167.2670324506291
 21
815.17153278620082
  0
LINE
  8
_0-0_0
  6
CONTINUOUS
 62
    7
 10
1167.2670324506291
 20
815.17153278620082
 11
1167.2547539346633
 21
815.16322021937003
  0
LINE
  8
_0-0_0
  6
CONTINUOUS
 62
    7
 10
1167.2547539346633
 20
815.16322021937003
 11
1167.2428484694648
 21
815.15267619139035
  0
LINE
  8
_0-0_0
  6
CONTINUOUS
 62
    7
 10
1167.2428484694648
 20
815.15267619139035
 11
1167.2316777965695
 21
815.14022107721632
  0
LINE
  8
_0-0_0
  6
CONTINUOUS
 62
    7
 10
1167.2316777965695
 20
815.14022107721632
 11
1167.2215813312202
 21
815.12623331918973
  0
LINE
  8
_0-0_0
  6
CONTINUOUS
 62
    7
 10
1167.2215813312202
 20
815.12623331918973
 11
1167.2128658494079
 21
815.11113792825983
  0
LINE
  8
_0-0_0
  6
CONTINUOUS
 62
    7
 10
1167.2128658494079
 20
815.11113792825983
 11
1167.2057961666373
 21
815.09539357024164
  0
LINE
  8
_0-0_0
  6
CONTINUOUS
 62
    7
 10
1167.2057961666373
 20
815.09539357024164
 11
1167.2005870916416
 21
815.07947862948628
  0
LINE
  8
_0-0_0
  6
CONTINUOUS
 62
    7
 10
1167.2005870916416
 20
815.07947862948628
 11
1167.1973968995287
 21
815.06387667341539
  0
LINE
  8
_0-0_0
  6
CONTINUOUS
 62
    7
 10
1167.1973968995287
 20
815.06387667341539
 11
1167.1967672497828
 21
815.05847156343497
  0
LINE
  8
_0-0_0
  6
CONTINUOUS
 62
    7
 10
1207.5293849799152
 20
791.83246171241182
 11
1167.1967672494151
 21
815.05847156341189
  0
LINE
  8
_0-0_0
  6
CONTINUOUS
 62
    7
 10
1167.1967672495982
 20
815.05847156365246
 11
1167.1967672495982
 21
815.05847156365246
  0
LINE
  8
_0-0_0
  6
CONTINUOUS
 62
    7
 10
1167.1967672495982
 20
815.05847156365246
 11
1167.1628247486987
 21
814.8292691433561
  0
LINE
  8
_0-0_0
  6
CONTINUOUS
 62
    7
 10
1167.1628247486987
 20
814.8292691433561
 11
1167.1594803305124
 21
814.77743096802566
  0
LINE
  8
_0-0_0
  6
CONTINUOUS
 62
    7
 10
1207.5293849799152
 20
791.5299490079119
 11
1167.1594803304151
 21
814.77743096791186
  0
LINE
  8
_0-0_0
  6
CONTINUOUS
 62
    7
 10
1207.5352775364151
 20
787.35542660041187
 11
1207.5352775364151
 21
786.74057488791186
  0
LINE
  8
_0-0_0
  6
CONTINUOUS
 62
    7
 10
1167.1594803304151
 20
809.99145014591192
 11
1167.1594803304151
 21
814.77743096791186
  0
LINE
  8
_0-0_0
  6
CONTINUOUS
 62
    7
 10
1207.5352775364151
 20
786.74057488791186
 11
1167.1594803304151
 21
809.99145014591192
  0
LINE
  8
_0-0_0
  6
CONTINUOUS
 62
    7
 10
1207.5352775363303
 20
786.74057488815901
 11
1207.5352775363303
 21
786.74057488815901
  0
LINE
  8
_0-0_0
  6
CONTINUOUS
 62
    7
 10
1207.5352775363303
 20
786.74057488815901
 11
1207.5617736479912
 21
786.54475084458897
  0
LINE
  8
_0-0_0
  6
CONTINUOUS
 62
    7
 10
1207.5617736479912
 20
786.54475084458897
 11
1207.567989276257
 21
786.51941107563538
  0
LINE
  8
_0-0_0
  6
CONTINUOUS
 62
    7
 10
1167.1594803303337
 20
809.99145014566147
 11
1167.1594803303337
 21
809.99145014566147
  0
LINE
  8
_0-0_0
  6
CONTINUOUS
 62
    7
 10
1167.1594803303337
 20
809.99145014566147
 11
1167.1859764419946
 21
809.79562610209165
  0
LINE
  8
_0-0_0
  6
CONTINUOUS
 62
    7
 10
1167.1859764419946
 20
809.79562610209165
 11
1167.1921920702607
 21
809.77028633313807
  0
LINE
  8
_0-0_0
  6
CONTINUOUS
 62
    7
 10
1207.6480131959149
 20
786.47332836491182
 11
1207.676698892415
 21
786.48984735941189
  0
LINE
  8
_0-0_0
  6
CONTINUOUS
 62
    7
 10
1207.676698892415
 20
786.48984735941189
 11
1207.676698892415
 21
786.57771127341197
  0
LINE
  8
_0-0_0
  6
CONTINUOUS
 62
    7
 10
1207.6000956578166
 20
786.65012127126146
 11
1207.6000956578166
 21
786.65012127126146
  0
LINE
  8
_0-0_0
  6
CONTINUOUS
 62
    7
 10
1207.6000956578166
 20
786.65012127126146
 11
1207.6009908695552
 21
786.63880632538393
  0
LINE
  8
_0-0_0
  6
CONTINUOUS
 62
    7
 10
1207.6009908695552
 20
786.63880632538393
 11
1207.6036493042163
 21
786.62886621472068
  0
LINE
  8
_0-0_0
  6
CONTINUOUS
 62
    7
 10
1207.6036493042163
 20
786.62886621472068
 11
1207.6079901866071
 21
786.6206029645042
  0
LINE
  8
_0-0_0
  6
CONTINUOUS
 62
    7
 10
1207.6079901866071
 20
786.6206029645042
 11
1207.6138816212135
 21
786.61426764941097
  0
LINE
  8
_0-0_0
  6
CONTINUOUS
 62
    7
 10
1207.6138816212135
 20
786.61426764941097
 11
1207.6174352052833
 21
786.61183896106513
  0
LINE
  8
_0-0_0
  6
CONTINUOUS
 62
    7
 10
1207.600095657915
 20
786.65012127141176
 11
1207.600095657915
 21
787.31810032641192
  0
LINE
  8
_0-0_0
  6
CONTINUOUS
 62
    7
 10
1207.5293849799152
 20
787.35881989791187
 11
1207.5293849799152
 21
791.88258065541185
  0
LINE
  8
_0-0_0
  6
CONTINUOUS
 62
    7
 10
1207.6472361099167
 20
792.08670446155144
 11
1207.6472361099167
 21
792.08670446155144
  0
LINE
  8
_0-0_0
  6
CONTINUOUS
 62
    7
 10
1207.6472361099167
 20
792.08670446155144
 11
1207.6267714759221
 21
792.07284959963487
  0
LINE
  8
_0-0_0
  6
CONTINUOUS
 62
    7
 10
1207.6267714759221
 20
792.07284959963487
 11
1207.606928649476
 21
792.05527558473852
  0
LINE
  8
_0-0_0
  6
CONTINUOUS
 62
    7
 10
1207.606928649476
 20
792.05527558473852
 11
1207.5883105448185
 21
792.03451639441209
  0
LINE
  8
_0-0_0
  6
CONTINUOUS
 62
    7
 10
1207.5883105448185
 20
792.03451639441209
 11
1207.5714828636387
 21
792.01120278614905
  0
LINE
  8
_0-0_0
  6
CONTINUOUS
 62
    7
 10
1207.5714828636387
 20
792.01120278614905
 11
1207.5569569065141
 21
791.98604313213911
  0
LINE
  8
_0-0_0
  6
CONTINUOUS
 62
    7
 10
1207.5569569065141
 20
791.98604313213911
 11
1207.5451740373014
 21
791.95980189573811
  0
LINE
  8
_0-0_0
  6
CONTINUOUS
 62
    7
 10
1207.5451740373014
 20
791.95980189573811
 11
1207.5364922725191
 21
791.93327640363531
  0
LINE
  8
_0-0_0
  6
CONTINUOUS
 62
    7
 10
1207.5364922725191
 20
791.93327640363531
 11
1207.531175403197
 21
791.90727261948575
  0
LINE
  8
_0-0_0
  6
CONTINUOUS
 62
    7
 10
1207.531175403197
 20
791.90727261948575
 11
1207.5293849797189
 21
791.88258065511217
  0
LINE
  8
_0-0_0
  6
CONTINUOUS
 62
    7
 10
1207.5293849797189
 20
791.88258065511217
 11
1207.5293849797189
 21
791.88258065511217
  0
LINE
  8
_0-0_0
  6
CONTINUOUS
 62
    7
 10
1207.6472361099151
 20
792.08670446191194
 11
1208.425053569415
 21
792.53461974691185
  0
LINE
  8
_0-0_0
  6
CONTINUOUS
 62
    7
 10
1208.5082256046791
 20
792.5427924656027
 11
1208.5082256046791
 21
792.5427924656027
  0
LINE
  8
_0-0_0
  6
CONTINUOUS
 62
    7
 10
1208.5082256046791
 20
792.5427924656027
 11
1208.4924633980983
 21
792.54894745013427
  0
LINE
  8
_0-0_0
  6
CONTINUOUS
 62
    7
 10
1208.4924633980983
 20
792.54894745013427
 11
1208.4746529779843
 21
792.55052696870961
  0
LINE
  8
_0-0_0
  6
CONTINUOUS
 62
    7
 10
1208.4746529779843
 20
792.55052696870961
 11
1208.4553355049392
 21
792.54748302845609
  0
LINE
  8
_0-0_0
  6
CONTINUOUS
 62
    7
 10
1208.4553355049392
 20
792.54748302845609
 11
1208.4350979306066
 21
792.5399081179579
  0
LINE
  8
_0-0_0
  6
CONTINUOUS
 62
    7
 10
1208.4350979306066
 20
792.5399081179579
 11
1208.4250535694166
 21
792.53461974705123
  0
LINE
  8
_0-0_0
  6
CONTINUOUS
 62
    7
 10
1208.6843260559153
 20
792.38478870241181
 11
1208.6843260559153
 21
787.86102794491182
  0
LINE
  8
_0-0_0
  6
CONTINUOUS
 62
    7
 10
1208.6843260559153
 20
787.86102794491182
 11
1208.613615377415
 21
787.82030837341176
  0
LINE
  8
_0-0_0
  6
CONTINUOUS
 62
    7
 10
1208.613615377415
 20
787.82030837341176
 11
1208.613615377415
 21
787.07089017591192
  0
LINE
  8
_0-0_0
  6
CONTINUOUS
 62
    7
 10
1207.600095657915
 20
786.65012127141176
 11
1207.7415170144151
 21
786.56868212891185
  0
LINE
  8
_0-0_0
  6
CONTINUOUS
 62
    7
 10
1207.7415170144151
 20
786.56868212891185
 11
1207.7415170144151
 21
787.31810032641192
  0
LINE
  8
_0-0_0
  6
CONTINUOUS
 62
    7
 10
1207.7415170144151
 20
787.31810032641192
 11
1207.6708063359151
 21
787.27738075491186
  0
LINE
  8
_0-0_0
  6
CONTINUOUS
 62
    7
 10
1207.5293849799152
 20
787.35881989791187
 11
1207.6708063359151
 21
787.27738075491186
  0
LINE
  8
_0-0_0
  6
CONTINUOUS
 62
    7
 10
1207.6708063359151
 20
791.80114151241184
 11
1207.5293849799152
 21
791.88258065541185
  0
LINE
  8
_0-0_0
  6
CONTINUOUS
 62
    7
 10
1207.6708063359151
 20
787.27738075491186
 11
1207.6708063359151
 21
791.80114151241184
  0
LINE
  8
_0-0_0
  6
CONTINUOUS
 62
    7
 10
1207.7886574664164
 20
792.00526531905109
 11
1207.7886574664164
 21
792.00526531905109
  0
LINE
  8
_0-0_0
  6
CONTINUOUS
 62
    7
 10
1207.7886574664164
 20
792.00526531905109
 11
1207.7681928324218
 21
791.99141045713452
  0
LINE
  8
_0-0_0
  6
CONTINUOUS
 62
    7
 10
1207.7681928324218
 20
791.99141045713452
 11
1207.7483500059756
 21
791.97383644223816
  0
LINE
  8
_0-0_0
  6
CONTINUOUS
 62
    7
 10
1207.7483500059756
 20
791.97383644223816
 11
1207.7297319013182
 21
791.95307725191173
  0
LINE
  8
_0-0_0
  6
CONTINUOUS
 62
    7
 10
1207.7297319013182
 20
791.95307725191173
 11
1207.7129042201386
 21
791.92976364364858
  0
LINE
  8
_0-0_0
  6
CONTINUOUS
 62
    7
 10
1207.7129042201386
 20
791.92976364364858
 11
1207.6983782630138
 21
791.90460398963875
  0
LINE
  8
_0-0_0
  6
CONTINUOUS
 62
    7
 10
1207.6983782630138
 20
791.90460398963875
 11
1207.6865953938013
 21
791.87836275323775
  0
LINE
  8
_0-0_0
  6
CONTINUOUS
 62
    7
 10
1207.6865953938013
 20
791.87836275323775
 11
1207.677913629019
 21
791.85183726113507
  0
LINE
  8
_0-0_0
  6
CONTINUOUS
 62
    7
 10
1207.677913629019
 20
791.85183726113507
 11
1207.6725967596969
 21
791.8258334769855
  0
LINE
  8
_0-0_0
  6
CONTINUOUS
 62
    7
 10
1207.6725967596969
 20
791.8258334769855
 11
1207.6708063362189
 21
791.80114151261204
  0
LINE
  8
_0-0_0
  6
CONTINUOUS
 62
    7
 10
1207.6472361099151
 20
792.08670446191194
 11
1207.788657466415
 21
792.00526531891182
  0
LINE
  8
_0-0_0
  6
CONTINUOUS
 62
    7
 10
1208.5664749254151
 20
792.45318060391184
 11
1208.425053569415
 21
792.53461974691185
  0
LINE
  8
_0-0_0
  6
CONTINUOUS
 62
    7
 10
1207.788657466415
 20
792.00526531891182
 11
1208.5664749254151
 21
792.45318060391184
  0
LINE
  8
_0-0_0
  6
CONTINUOUS
 62
    7
 10
1208.6843260556113
 20
792.38478870221115
 11
1208.6843260556113
 21
792.38478870221115
  0
LINE
  8
_0-0_0
  6
CONTINUOUS
 62
    7
 10
1208.6843260556113
 20
792.38478870221115
 11
1208.6825356321339
 21
792.40741859396587
  0
LINE
  8
_0-0_0
  6
CONTINUOUS
 62
    7
 10
1208.6825356321339
 20
792.40741859396587
 11
1208.6772187628123
 21
792.42729881529214
  0
LINE
  8
_0-0_0
  6
CONTINUOUS
 62
    7
 10
1208.6772187628123
 20
792.42729881529214
 11
1208.6685369980307
 21
792.44382531572478
  0
LINE
  8
_0-0_0
  6
CONTINUOUS
 62
    7
 10
1208.6685369980307
 20
792.44382531572478
 11
1208.6567541288184
 21
792.456495945911
  0
LINE
  8
_0-0_0
  6
CONTINUOUS
 62
    7
 10
1208.6567541288184
 20
792.456495945911
 11
1208.6422281716943
 21
792.46492571516432
  0
LINE
  8
_0-0_0
  6
CONTINUOUS
 62
    7
 10
1208.6422281716943
 20
792.46492571516432
 11
1208.6254004905149
 21
792.46885848921147
  0
LINE
  8
_0-0_0
  6
CONTINUOUS
 62
    7
 10
1208.6254004905149
 20
792.46885848921147
 11
1208.6067823858577
 21
792.46817477270315
  0
LINE
  8
_0-0_0
  6
CONTINUOUS
 62
    7
 10
1208.6067823858577
 20
792.46817477270315
 11
1208.5869395594115
 21
792.46289534001959
  0
LINE
  8
_0-0_0
  6
CONTINUOUS
 62
    7
 10
1208.5869395594115
 20
792.46289534001959
 11
1208.5664749254169
 21
792.45318060405134
  0
LINE
  8
_0-0_0
  6
CONTINUOUS
 62
    7
 10
1208.5664749254169
 20
792.45318060405134
 11
1208.5664749254167
 21
792.45318060405122
  0
LINE
  8
_0-0_0
  6
CONTINUOUS
 62
    7
 10
1207.7415170143171
 20
786.56868212876156
 11
1207.7415170143171
 21
786.56868212876156
  0
LINE
  8
_0-0_0
  6
CONTINUOUS
 62
    7
 10
1207.7415170143171
 20
786.56868212876156
 11
1207.7424122260558
 21
786.55736718288426
  0
LINE
  8
_0-0_0
  6
CONTINUOUS
 62
    7
 10
1207.7424122260558
 20
786.55736718288426
 11
1207.7450706607166
 21
786.54742707222123
  0
LINE
  8
_0-0_0
  6
CONTINUOUS
 62
    7
 10
1207.7450706607166
 20
786.54742707222123
 11
1207.7494115431077
 21
786.53916382200497
  0
LINE
  8
_0-0_0
  6
CONTINUOUS
 62
    7
 10
1207.7494115431077
 20
786.53916382200497
 11
1207.7553029777138
 21
786.53282850691198
  0
LINE
  8
_0-0_0
  6
CONTINUOUS
 62
    7
 10
1207.7553029777138
 20
786.53282850691198
 11
1207.7625659562759
 21
786.52861362228543
  0
LINE
  8
_0-0_0
  6
CONTINUOUS
 62
    7
 10
1207.7625659562759
 20
786.52861362228543
 11
1207.7709797968657
 21
786.52664723526197
  0
LINE
  8
_0-0_0
  6
CONTINUOUS
 62
    7
 10
1207.7709797968657
 20
786.52664723526197
 11
1207.7802888491944
 21
786.52698909351624
  0
LINE
  8
_0-0_0
  6
CONTINUOUS
 62
    7
 10
1207.7802888491944
 20
786.52698909351624
 11
1207.7902102624175
 21
786.52962880985808
  0
LINE
  8
_0-0_0
  6
CONTINUOUS
 62
    7
 10
1207.7902102624175
 20
786.52962880985808
 11
1207.8004425794142
 21
786.53448617784215
  0
LINE
  8
_0-0_0
  6
CONTINUOUS
 62
    7
 10
1208.554689812415
 20
786.96882827241188
 11
1207.8004425794151
 21
786.53448617791184
  0
LINE
  8
_0-0_0
  6
CONTINUOUS
 62
    7
 10
1208.5546898124141
 20
786.96882827234207
 11
1208.5546898124141
 21
786.96882827234207
  0
LINE
  8
_0-0_0
  6
CONTINUOUS
 62
    7
 10
1208.5546898124141
 20
786.96882827234207
 11
1208.5649221294115
 21
786.97575570330036
  0
LINE
  8
_0-0_0
  6
CONTINUOUS
 62
    7
 10
1208.5649221294115
 20
786.97575570330036
 11
1208.5748435426346
 21
786.98454271074854
  0
LINE
  8
_0-0_0
  6
CONTINUOUS
 62
    7
 10
1208.5748435426346
 20
786.98454271074854
 11
1208.5841525949633
 21
786.9949223059117
  0
LINE
  8
_0-0_0
  6
CONTINUOUS
 62
    7
 10
1208.5841525949633
 20
786.9949223059117
 11
1208.5925664355531
 21
787.00657911004316
  0
LINE
  8
_0-0_0
  6
CONTINUOUS
 62
    7
 10
1208.5925664355531
 20
787.00657911004316
 11
1208.5998294141154
 21
787.01915893704813
  0
LINE
  8
_0-0_0
  6
CONTINUOUS
 62
    7
 10
1208.5998294141154
 20
787.01915893704813
 11
1208.6057208487218
 21
787.03227955524857
  0
LINE
  8
_0-0_0
  6
CONTINUOUS
 62
    7
 10
1208.6057208487218
 20
787.03227955524857
 11
1208.610061731113
 21
787.04554230129997
  0
LINE
  8
_0-0_0
  6
CONTINUOUS
 62
    7
 10
1208.610061731113
 20
787.04554230129997
 11
1208.6127201657741
 21
787.0585441933747
  0
LINE
  8
_0-0_0
  6
CONTINUOUS
 62
    7
 10
1208.6127201657741
 20
787.0585441933747
 11
1208.613615377513
 21
787.07089017556143
  0
LINE
  8
_0-0_0
  6
CONTINUOUS
 62
    7
 10
1208.613615377513
 20
787.07089017556143
 11
1208.613615377513
 21
787.07089017556188
  0
LINE
  8
_0-0_0
  6
CONTINUOUS
 62
    7
 10
1208.6496469609151
 20
792.46135332291191
 11
1208.5082256044149
 21
792.54279246541182
  0
LINE
  8
_0-0_0
  6
CONTINUOUS
 62
    7
 10
1207.758856561415
 20
786.53039981841186
 11
1207.6174352054149
 21
786.61183896141187
  0
LINE
  8
_0-0_0
  6
CONTINUOUS
 62
    7
 10
1208.1340344019149
 20
787.16461845341189
 11
1208.1340344019149
 21
787.12638210241175
  0
LINE
  8
_0-0_0
  6
CONTINUOUS
 62
    7
 10
1208.186089830915
 20
787.21608086841183
 11
1208.152890582415
 21
787.19696269291193
  0
LINE
  8
_0-0_0
  6
CONTINUOUS
 62
    7
 10
1208.152890582415
 20
787.29538391741186
 11
1208.204745079915
 21
787.32524493641176
  0
LINE
  8
_0-0_0
  6
CONTINUOUS
 62
    7
 10
1208.204745079915
 20
787.32524493641176
 11
1208.204745079915
 21
787.20533802491195
  0
LINE
  8
_0-0_0
  6
CONTINUOUS
 62
    7
 10
1208.152890582415
 20
787.23519904391184
 11
1208.204745079915
 21
787.20533802491195
  0
LINE
  8
_0-0_0
  6
CONTINUOUS
 62
    7
 10
1208.204745079915
 20
787.20533802491195
 11
1208.308454074415
 21
787.26506006291185
  0
LINE
  8
_0-0_0
  6
CONTINUOUS
 62
    7
 10
1208.308454074415
 20
787.26506006291185
 11
1208.308454074415
 21
787.20510660691184
  0
LINE
  8
_0-0_0
  6
CONTINUOUS
 62
    7
 10
1208.2563986454149
 20
787.23508333491179
 11
1208.308454074415
 21
787.20510660691184
  0
LINE
  8
_0-0_0
  6
CONTINUOUS
 62
    7
 10
1208.308454074415
 20
787.20510660691184
 11
1208.204745079915
 21
787.14538456891193
  0
LINE
  8
_0-0_0
  6
CONTINUOUS
 62
    7
 10
1208.1526896509151
 20
787.17536129691188
 11
1208.204745079915
 21
787.14538456891193
  0
LINE
  8
_0-0_0
  6
CONTINUOUS
 62
    7
 10
1208.204745079915
 20
787.14538456891193
 11
1208.204745079915
 21
787.02547765741189
  0
LINE
  8
_0-0_0
  6
CONTINUOUS
 62
    7
 10
1208.152890582415
 20
787.05533867641179
 11
1208.204745079915
 21
787.02547765741189
  0
LINE
  8
_0-0_0
  6
CONTINUOUS
 62
    7
 10
1208.204745079915
 20
787.02547765741189
 11
1208.152890582415
 21
786.99561663841177
  0
LINE
  8
_0-0_0
  6
CONTINUOUS
 62
    7
 10
1208.152890582415
 20
786.99561663841177
 11
1208.152890582415
 21
787.11552354991181
  0
LINE
  8
_0-0_0
  6
CONTINUOUS
 62
    7
 10
1208.1008351534151
 20
787.14550027791187
 11
1208.152890582415
 21
787.11552354991181
  0
LINE
  8
_0-0_0
  6
CONTINUOUS
 62
    7
 10
1208.152890582415
 20
787.11552354991181
 11
1208.0491815879149
 21
787.05580151191179
  0
LINE
  8
_0-0_0
  6
CONTINUOUS
 62
    7
 10
1208.0491815879149
 20
787.05580151191179
 11
1208.0491815879149
 21
787.11575496791181
  0
LINE
  8
_0-0_0
  6
CONTINUOUS
 62
    7
 10
1208.0491815879149
 20
787.11575496791181
 11
1208.152890582415
 21
787.17547700591183
  0
LINE
  8
_0-0_0
  6
CONTINUOUS
 62
    7
 10
1208.152890582415
 20
787.17547700591183
 11
1208.152890582415
 21
787.29538391741186
  0
LINE
  8
_0-0_0
  6
CONTINUOUS
 62
    7
 10
1208.0124737604151
 20
786.87156964191194
 11
1207.981943914915
 21
786.88915061091176
  0
LINE
  8
_0-0_0
  6
CONTINUOUS
 62
    7
 10
1208.3451619019151
 20
787.44929193291181
 11
1208.315515380915
 21
787.46636422891185
  0
LINE
  8
_0-0_0
  6
CONTINUOUS
 62
    7
 10
1208.1340344019149
 20
788.45906806791185
 11
1208.1340344019149
 21
788.42083171691183
  0
LINE
  8
_0-0_0
  6
CONTINUOUS
 62
    7
 10
1208.186089830915
 20
788.51053048291191
 11
1208.152890582415
 21
788.49141230741179
  0
LINE
  8
_0-0_0
  6
CONTINUOUS
 62
    7
 10
1208.152890582415
 20
788.58983353191194
 11
1208.204745079915
 21
788.61969455091184
  0
LINE
  8
_0-0_0
  6
CONTINUOUS
 62
    7
 10
1208.204745079915
 20
788.61969455091184
 11
1208.204745079915
 21
788.4997876394118
  0
LINE
  8
_0-0_0
  6
CONTINUOUS
 62
    7
 10
1208.152890582415
 20
788.52964865841181
 11
1208.204745079915
 21
788.4997876394118
  0
LINE
  8
_0-0_0
  6
CONTINUOUS
 62
    7
 10
1208.204745079915
 20
788.4997876394118
 11
1208.308454074415
 21
788.55950967741182
  0
LINE
  8
_0-0_0
  6
CONTINUOUS
 62
    7
 10
1208.308454074415
 20
788.55950967741182
 11
1208.308454074415
 21
788.4995562214118
  0
LINE
  8
_0-0_0
  6
CONTINUOUS
 62
    7
 10
1208.2563986454149
 20
788.52953294941187
 11
1208.308454074415
 21
788.4995562214118
  0
LINE
  8
_0-0_0
  6
CONTINUOUS
 62
    7
 10
1208.308454074415
 20
788.4995562214118
 11
1208.204745079915
 21
788.43983418341179
  0
LINE
  8
_0-0_0
  6
CONTINUOUS
 62
    7
 10
1208.1526896509151
 20
788.46981091141185
 11
1208.204745079915
 21
788.43983418341179
  0
LINE
  8
_0-0_0
  6
CONTINUOUS
 62
    7
 10
1208.204745079915
 20
788.43983418341179
 11
1208.204745079915
 21
788.31992727191186
  0
LINE
  8
_0-0_0
  6
CONTINUOUS
 62
    7
 10
1208.152890582415
 20
788.34978829091187
 11
1208.204745079915
 21
788.31992727191186
  0
LINE
  8
_0-0_0
  6
CONTINUOUS
 62
    7
 10
1208.204745079915
 20
788.31992727191186
 11
1208.152890582415
 21
788.29006625291185
  0
LINE
  8
_0-0_0
  6
CONTINUOUS
 62
    7
 10
1208.152890582415
 20
788.29006625291185
 11
1208.152890582415
 21
788.40997316441189
  0
LINE
  8
_0-0_0
  6
CONTINUOUS
 62
    7
 10
1208.1008351534151
 20
788.43994989241184
 11
1208.152890582415
 21
788.40997316441189
  0
LINE
  8
_0-0_0
  6
CONTINUOUS
 62
    7
 10
1208.152890582415
 20
788.40997316441189
 11
1208.0491815879149
 21
788.35025112641187
  0
LINE
  8
_0-0_0
  6
CONTINUOUS
 62
    7
 10
1208.0491815879149
 20
788.35025112641187
 11
1208.0491815879149
 21
788.41020458241189
  0
LINE
  8
_0-0_0
  6
CONTINUOUS
 62
    7
 10
1208.0491815879149
 20
788.41020458241189
 11
1208.152890582415
 21
788.46992662041191
  0
LINE
  8
_0-0_0
  6
CONTINUOUS
 62
    7
 10
1208.152890582415
 20
788.46992662041191
 11
1208.152890582415
 21
788.58983353191194
  0
LINE
  8
_0-0_0
  6
CONTINUOUS
 62
    7
 10
1208.0124737604151
 20
788.1660192564118
 11
1207.981943914915
 21
788.18360022541185
  0
LINE
  8
_0-0_0
  6
CONTINUOUS
 62
    7
 10
1208.3451619019151
 20
788.7437415474119
 11
1208.315515380915
 21
788.76081384291182
  0
LINE
  8
_0-0_0
  6
CONTINUOUS
 62
    7
 10
1246.9505888904152
 20
770.81688339341201
 11
1208.330772664915
 21
793.05655645641184
  0
LINE
  8
_0-0_0
  6
CONTINUOUS
 62
    7
 10
1246.9505888904152
 20
770.77787540141207
 11
1208.330772664915
 21
793.0175484644119
  0
LINE
  8
_0-0_0
  6
CONTINUOUS
 62
    7
 10
1246.9505888904152
 20
770.62435114041193
 11
1208.330772664915
 21
792.86402420341187
  0
LINE
  8
_0-0_0
  6
CONTINUOUS
 62
    7
 10
1246.9505888904152
 20
770.32183843591201
 11
1208.6843260559153
 21
792.35791364241185
  0
LINE
  8
_0-0_0
  6
CONTINUOUS
 62
    7
 10
1208.401262258415
 20
792.52091924191188
 11
1208.330772664915
 21
792.56151149891184
  0
LINE
  8
_0-0_0
  6
CONTINUOUS
 62
    7
 10
1246.9505888904152
 20
765.53585761391207
 11
1208.613615377415
 21
787.61265239141175
  0
LINE
  8
_0-0_0
  6
CONTINUOUS
 62
    7
 10
1246.9505888904152
 20
765.31923334391194
 11
1208.613615377415
 21
787.39602812191174
  0
LINE
  8
_0-0_0
  6
CONTINUOUS
 62
    7
 10
1246.9505888904152
 20
765.29392041741198
 11
1208.613615377415
 21
787.37071519491178
  0
LINE
  8
_0-0_0
  6
CONTINUOUS
 62
    7
 10
1247.041840276415
 20
804.08590365291183
 11
1208.330772664915
 21
826.37812489441193
  0
LINE
  8
_0-0_0
  6
CONTINUOUS
 62
    7
 10
1128.7812597814152
 20
837.61118526391192
 11
1128.7812597814152
 21
872.19342864441182
  0
LINE
  8
_0-0_0
  6
CONTINUOUS
 62
    7
 10
1088.4054625759151
 20
895.444303901912
 11
1128.7812597814152
 21
872.19342864441182
  0
LINE
  8
_0-0_0
  6
CONTINUOUS
 62
    7
 10
1088.4054625759151
 20
860.62389854891193
 11
1088.4054625759151
 21
895.444303901912
  0
LINE
  8
_0-0_0
  6
CONTINUOUS
 62
    7
 10
1129.3705154324152
 20
837.95051502541184
 11
1129.3705154324152
 21
872.53275840591186
  0
LINE
  8
_0-0_0
  6
CONTINUOUS
 62
    7
 10
1128.7812597814152
 20
872.19342864441182
 11
1129.3705154324152
 21
872.53275840591186
  0
LINE
  8
_0-0_0
  6
CONTINUOUS
 62
    7
 10
1167.3657198084151
 20
815.15371050841179
 11
1167.3657198084151
 21
849.97411586191196
  0
LINE
  8
_0-0_0
  6
CONTINUOUS
 62
    7
 10
1208.330772664915
 20
792.48032698491192
 11
1208.330772664915
 21
827.06257036591182
  0
LINE
  8
_0-0_0
  6
CONTINUOUS
 62
    7
 10
1207.7415170144151
 20
826.72324060441178
 11
1208.330772664915
 21
827.06257036591182
  0
LINE
  8
_0-0_0
  6
CONTINUOUS
 62
    7
 10
1207.7415170144151
 20
792.14099722341188
 11
1207.7415170144151
 21
826.72324060441178
  0
LINE
  8
_0-0_0
  6
CONTINUOUS
 62
    7
 10
1167.3657198084151
 20
849.97411586191196
 11
1207.7415170144151
 21
826.72324060441178
  0
LINE
  8
_0-0_0
  6
CONTINUOUS
 62
    7
 10
1167.3657198084151
 20
849.96833043291189
 11
1129.3705154324152
 21
871.84831345441182
  0
LINE
  8
_0-0_0
  6
CONTINUOUS
 62
    7
 10
1263.3672520859149
 20
857.124034531912
 11
1263.3672520859149
 21
858.75597102141205
  0
LINE
  8
_0-0_0
  6
CONTINUOUS
 62
    7
 10
1263.956507736915
 20
856.78470477041196
 11
1263.956507736915
 21
859.09530078291197
  0
LINE
  8
_0-0_0
  6
CONTINUOUS
 62
    7
 10
1263.956507736915
 20
859.09530078291197
 11
1263.3672520859149
 21
858.75597102141205
  0
LINE
  8
_0-0_0
  6
CONTINUOUS
 62
    7
 10
1184.9962505044152
 20
902.25489073141204
 11
1184.9962505044152
 21
904.56548882291201
  0
LINE
  8
_0-0_0
  6
CONTINUOUS
 62
    7
 10
1184.4069948534151
 20
902.59422049291197
 11
1184.4069948534151
 21
904.22615906141209
  0
LINE
  8
_0-0_0
  6
CONTINUOUS
 62
    7
 10
1184.9962505044152
 20
904.56548882291201
 11
1184.4069948534151
 21
904.22615906141209
  0
LINE
  8
_0-0_0
  6
CONTINUOUS
 62
    7
 10
1208.330772664915
 20
826.37812932491192
 11
1247.041841763415
 21
804.08590722691189
  0
LINE
  8
_0-0_0
  6
CONTINUOUS
 62
    7
 10
1261.950300336415
 20
857.94000277691202
 11
1300.9803113924149
 21
835.46411422041182
  0
LINE
  8
_0-0_0
  6
CONTINUOUS
 62
    7
 10
1247.3801770509148
 20
804.57236216341186
 11
1208.330772664915
 21
827.05941859591189
  0
LINE
  8
_0-0_0
  6
CONTINUOUS
 62
    7
 10
1167.3657198084151
 20
849.97411586191196
 11
1207.7415170144151
 21
826.72324060441178
  0
LINE
  8
_0-0_0
  6
CONTINUOUS
 62
    7
 10
1207.7415170144151
 20
826.72324060441178
 11
1263.9565061184152
 21
859.09529985091182
  0
LINE
  8
_0-0_0
  6
CONTINUOUS
 62
    7
 10
1207.7415170144151
 20
826.72324060441178
 11
1207.7415170144151
 21
827.40452987491175
  0
LINE
  8
_0-0_0
  6
CONTINUOUS
 62
    7
 10
1263.9565061184152
 20
859.7765891214118
 11
1263.9565061184152
 21
859.09529985091182
  0
LINE
  8
_0-0_0
  6
CONTINUOUS
 62
    7
 10
1207.7415170144151
 20
827.40452987491175
 11
1263.9565061184152
 21
859.7765891214118
  0
LINE
  8
_0-0_0
  6
CONTINUOUS
 62
    7
 10
1207.7415170144151
 20
827.40452987491175
 11
1167.3657198084151
 21
850.65540513241194
  0
LINE
  8
_0-0_0
  6
CONTINUOUS
 62
    7
 10
1223.580708912915
 20
883.02746437891187
 11
1263.9565061184152
 21
859.7765891214118
  0
LINE
  8
_0-0_0
  6
CONTINUOUS
 62
    7
 10
1167.3657198084151
 20
850.65540513241194
 11
1223.580708912915
 21
883.02746437891187
  0
LINE
  8
_0-0_0
  6
CONTINUOUS
 62
    7
 10
1167.3657198084151
 20
850.65540513241194
 11
1167.3657198084151
 21
849.97411586191196
  0
LINE
  8
_0-0_0
  6
CONTINUOUS
 62
    7
 10
1182.990041298415
 20
903.41018977741191
 11
1220.982962358915
 21
881.53152162991204
  0
LINE
  8
_0-0_0
  6
CONTINUOUS
 62
    7
 10
1167.3657198084151
 20
850.64962153541182
 11
1129.3705154324152
 21
872.52960455641186
  0
LINE
  8
_0-0_0
  6
CONTINUOUS
 62
    7
 10
1088.4054625759151
 20
895.444303901912
 11
1128.7812597814152
 21
872.19342864441182
  0
LINE
  8
_0-0_0
  6
CONTINUOUS
 62
    7
 10
1128.7812597814152
 20
872.19342864441182
 11
1184.996248885915
 21
904.56548789091186
  0
LINE
  8
_0-0_0
  6
CONTINUOUS
 62
    7
 10
1128.7812597814152
 20
872.19342864441182
 11
1128.7812597814152
 21
872.87471791541179
  0
LINE
  8
_0-0_0
  6
CONTINUOUS
 62
    7
 10
1184.996248885915
 20
905.24677716191206
 11
1184.996248885915
 21
904.56548789091186
  0
LINE
  8
_0-0_0
  6
CONTINUOUS
 62
    7
 10
1128.7812597814152
 20
872.87471791541179
 11
1184.996248885915
 21
905.24677716191206
  0
LINE
  8
_0-0_0
  6
CONTINUOUS
 62
    7
 10
1128.7812597814152
 20
872.87471791541179
 11
1088.4054625759151
 21
896.12559317291186
  0
LINE
  8
_0-0_0
  6
CONTINUOUS
 62
    7
 10
1144.620451680415
 20
928.4976524194119
 11
1184.996248885915
 21
905.24677716191206
  0
LINE
  8
_0-0_0
  6
CONTINUOUS
 62
    7
 10
1088.4054625759151
 20
896.12559317291186
 11
1144.620451680415
 21
928.4976524194119
  0
LINE
  8
_0-0_0
  6
CONTINUOUS
 62
    7
 10
1088.4054625759151
 20
896.12559317291186
 11
1088.4054625759151
 21
895.444303901912
  0
LINE
  8
_0-0_0
  6
CONTINUOUS
 62
    7
 10
748.69866546991499
 20
68.023870590411874
 11
748.69866546991499
 21
43.023870590411874
  0
LINE
  8
_0-0_0
  6
CONTINUOUS
 62
    7
 10
204.69866546991497
 20
68.023870590411874
 11
748.69866546991499
 21
68.023870590411874
  0
LINE
  8
_0-0_0
  6
CONTINUOUS
 62
    7
 10
204.69866546991497
 20
43.023870590411874
 11
204.69866546991497
 21
68.023870590411874
  0
LINE
  8
_0-0_0
  6
CONTINUOUS
 62
    7
 10
748.69866546991499
 20
43.023870590411874
 11
204.69866546991497
 21
43.023870590411874
  0
LINE
  8
_0-0_0
  6
CONTINUOUS
 62
    7
 10
245.89866504091503
 20
71.523870590411888
 11
246.19866504091518
 21
71.223870590411877
  0
LINE
  8
_0-0_0
  6
CONTINUOUS
 62
    7
 10
242.69866504091515
 20
71.523870590411888
 11
245.89866504091503
 21
71.523870590411888
  0
LINE
  8
_0-0_0
  6
CONTINUOUS
 62
    7
 10
242.69866504091515
 20
69.52387059041186
 11
242.69866504091515
 21
71.523870590411888
  0
LINE
  8
_0-0_0
  6
CONTINUOUS
 62
    7
 10
238.69866504091518
 20
69.52387059041186
 11
242.69866504091515
 21
69.52387059041186
  0
LINE
  8
_0-0_0
  6
CONTINUOUS
 62
    7
 10
238.69866504091518
 20
71.523870590411888
 11
238.69866504091518
 21
69.52387059041186
  0
LINE
  8
_0-0_0
  6
CONTINUOUS
 62
    7
 10
235.69866504091521
 20
71.523870590411888
 11
238.69866504091518
 21
71.523870590411888
  0
LINE
  8
_0-0_0
  6
CONTINUOUS
 62
    7
 10
235.69866504091521
 20
74.72387059041182
 11
235.69866504091521
 21
71.523870590411888
  0
LINE
  8
_0-0_0
  6
CONTINUOUS
 62
    7
 10
234.49866504091517
 20
74.72387059041182
 11
235.69866504091521
 21
74.72387059041182
  0
LINE
  8
_0-0_0
  6
CONTINUOUS
 62
    7
 10
234.49866504091517
 20
68.023870590411874
 11
234.49866504091517
 21
74.72387059041182
  0
LINE
  8
_0-0_0
  6
CONTINUOUS
 62
    7
 10
235.69866504091521
 20
68.023870590411874
 11
234.49866504091517
 21
68.023870590411874
  0
LINE
  8
_0-0_0
  6
CONTINUOUS
 62
    7
 10
235.69866504091521
 20
70.323870590411843
 11
235.69866504091521
 21
68.023870590411874
  0
LINE
  8
_0-0_0
  6
CONTINUOUS
 62
    7
 10
237.49866504091514
 20
70.323870590411843
 11
235.69866504091521
 21
70.323870590411843
  0
LINE
  8
_0-0_0
  6
CONTINUOUS
 62
    7
 10
237.49866504091514
 20
68.023870590411874
 11
237.49866504091514
 21
70.323870590411843
  0
LINE
  8
_0-0_0
  6
CONTINUOUS
 62
    7
 10
243.898665040915
 20
68.023870590411874
 11
237.49866504091514
 21
68.023870590411874
  0
LINE
  8
_0-0_0
  6
CONTINUOUS
 62
    7
 10
243.898665040915
 20
70.323870590411843
 11
243.898665040915
 21
68.023870590411874
  0
LINE
  8
_0-0_0
  6
CONTINUOUS
 62
    7
 10
248.49866504091517
 20
70.323870590411843
 11
243.898665040915
 21
70.323870590411843
  0
LINE
  8
_0-0_0
  6
CONTINUOUS
 62
    7
 10
248.49866504091517
 20
68.023870590411874
 11
248.49866504091517
 21
70.323870590411843
  0
LINE
  8
_0-0_0
  6
CONTINUOUS
 62
    7
 10
254.89866504091523
 20
68.023870590411874
 11
248.49866504091517
 21
68.023870590411874
  0
LINE
  8
_0-0_0
  6
CONTINUOUS
 62
    7
 10
254.89866504091523
 20
70.323870590411843
 11
254.89866504091523
 21
68.023870590411874
  0
LINE
  8
_0-0_0
  6
CONTINUOUS
 62
    7
 10
256.69866504091493
 20
70.323870590411843
 11
254.89866504091523
 21
70.323870590411843
  0
LINE
  8
_0-0_0
  6
CONTINUOUS
 62
    7
 10
256.69866504091493
 20
68.023870590411874
 11
256.69866504091493
 21
70.323870590411843
  0
LINE
  8
_0-0_0
  6
CONTINUOUS
 62
    7
 10
257.89866504091497
 20
68.023870590411874
 11
256.69866504091493
 21
68.023870590411874
  0
LINE
  8
_0-0_0
  6
CONTINUOUS
 62
    7
 10
257.89866504091497
 20
74.72387059041182
 11
257.89866504091497
 21
68.023870590411874
  0
LINE
  8
_0-0_0
  6
CONTINUOUS
 62
    7
 10
256.69866504091493
 20
74.72387059041182
 11
257.89866504091497
 21
74.72387059041182
  0
LINE
  8
_0-0_0
  6
CONTINUOUS
 62
    7
 10
256.69866504091493
 20
71.523870590411888
 11
256.69866504091493
 21
74.72387059041182
  0
LINE
  8
_0-0_0
  6
CONTINUOUS
 62
    7
 10
253.69866504091518
 20
71.523870590411888
 11
256.69866504091493
 21
71.523870590411888
  0
LINE
  8
_0-0_0
  6
CONTINUOUS
 62
    7
 10
253.69866504091518
 20
69.52387059041186
 11
253.69866504091518
 21
71.523870590411888
  0
LINE
  8
_0-0_0
  6
CONTINUOUS
 62
    7
 10
249.69866504091521
 20
69.52387059041186
 11
253.69866504091518
 21
69.52387059041186
  0
LINE
  8
_0-0_0
  6
CONTINUOUS
 62
    7
 10
249.69866504091521
 20
71.523870590411888
 11
249.69866504091521
 21
69.52387059041186
  0
LINE
  8
_0-0_0
  6
CONTINUOUS
 62
    7
 10
246.49866504091511
 20
71.523870590411888
 11
249.69866504091521
 21
71.523870590411888
  0
LINE
  8
_0-0_0
  6
CONTINUOUS
 62
    7
 10
246.19866504091518
 20
71.223870590411877
 11
246.49866504091511
 21
71.523870590411888
  0
LINE
  8
_0-0_0
  6
CONTINUOUS
 62
    7
 10
243.748658603415
 20
73.023870590411874
 11
237.64865860341507
 21
73.023870590411874
  0
LINE
  8
_0-0_0
  6
CONTINUOUS
 62
    7
 10
243.748658603415
 20
75.023870590411831
 11
237.64865860341507
 21
75.023870590411831
  0
LINE
  8
_0-0_0
  6
CONTINUOUS
 62
    7
 10
238.59865860341514
 20
75.523870590411874
 11
238.59865860341514
 21
75.023870590411831
  0
LINE
  8
_0-0_0
  6
CONTINUOUS
 62
    7
 10
237.64865860341507
 20
86.023870590411775
 11
243.748658603415
 21
86.023870590411775
  0
LINE
  8
_0-0_0
  6
CONTINUOUS
 62
    7
 10
243.748658603415
 20
89.023870590411888
 11
242.82365860341508
 21
89.023870590411888
  0
LINE
  8
_0-0_0
  6
CONTINUOUS
 62
    7
 10
238.57365860341502
 20
89.023870590411888
 11
237.64865860341507
 21
89.023870590411888
  0
LINE
  8
_0-0_0
  6
CONTINUOUS
 62
    7
 10
242.79865860341493
 20
75.023870590411831
 11
242.79865860341493
 21
75.523870590411874
  0
LINE
  8
_0-0_0
  6
CONTINUOUS
 62
    7
 10
238.59865860341514
 20
82.02387059041186
 11
238.59865860341514
 21
75.523870590411874
  0
LINE
  8
_0-0_0
  6
CONTINUOUS
 62
    7
 10
238.59865860341514
 20
86.023870590411775
 11
238.59865860341514
 21
82.02387059041186
  0
LINE
  8
_0-0_0
  6
CONTINUOUS
 62
    7
 10
237.64865860341507
 20
75.523870590411874
 11
238.59865860341514
 21
75.523870590411874
  0
LINE
  8
_0-0_0
  6
CONTINUOUS
 62
    7
 10
237.64865860341507
 20
82.02387059041186
 11
238.59865860341514
 21
82.02387059041186
  0
LINE
  8
_0-0_0
  6
CONTINUOUS
 62
    7
 10
242.79865860341493
 20
82.02387059041186
 11
242.79865860341493
 21
75.523870590411874
  0
LINE
  8
_0-0_0
  6
CONTINUOUS
 62
    7
 10
242.79865860341493
 20
86.023870590411775
 11
242.79865860341493
 21
82.02387059041186
  0
LINE
  8
_0-0_0
  6
CONTINUOUS
 62
    7
 10
242.79865860341493
 20
75.523870590411874
 11
243.748658603415
 21
75.523870590411874
  0
LINE
  8
_0-0_0
  6
CONTINUOUS
 62
    7
 10
242.79865860341493
 20
82.02387059041186
 11
243.748658603415
 21
82.02387059041186
  0
LINE
  8
_0-0_0
  6
CONTINUOUS
 62
    7
 10
237.09865879091523
 20
73.023870590411874
 11
237.36126860341514
 21
73.023870590411874
  0
LINE
  8
_0-0_0
  6
CONTINUOUS
 62
    7
 10
237.09865879091523
 20
73.023870590411874
 11
237.09865879091523
 21
73.084392899911847
  0
LINE
  8
_0-0_0
  6
CONTINUOUS
 62
    7
 10
244.29865841591515
 20
73.023870590411874
 11
244.03604860341494
 21
73.023870590411874
  0
LINE
  8
_0-0_0
  6
CONTINUOUS
 62
    7
 10
244.29865841591515
 20
73.023870590411874
 11
244.29865841591515
 21
73.084391008411841
  0
LINE
  8
_0-0_0
  6
CONTINUOUS
 62
    7
 10
239.19865860341502
 20
69.52387059041186
 11
239.19865860341502
 21
73.023870590411874
  0
LINE
  8
_0-0_0
  6
CONTINUOUS
 62
    7
 10
242.19865860341508
 20
73.023870590411874
 11
242.19865860341508
 21
69.52387059041186
  0
LINE
  8
_0-0_0
  6
CONTINUOUS
 62
    7
 10
242.74865860341498
 20
91.023870590411775
 11
243.748658603415
 21
90.623870590411854
  0
LINE
  8
_0-0_0
  6
CONTINUOUS
 62
    7
 10
238.6486586034151
 20
91.023870590411775
 11
242.74865860341498
 21
91.023870590411775
  0
LINE
  8
_0-0_0
  6
CONTINUOUS
 62
    7
 10
237.64865860341507
 20
90.623870590411854
 11
238.6486586034151
 21
91.023870590411775
  0
LINE
  8
_0-0_0
  6
CONTINUOUS
 62
    7
 10
237.64865860341507
 20
113.02387059041187
 11
237.64865860341507
 21
90.623870590411854
  0
LINE
  8
_0-0_0
  6
CONTINUOUS
 62
    7
 10
237.36126860341514
 20
113.02387059041187
 11
237.64865860341507
 21
113.02387059041187
  0
ARC
  8
_0-0_0
  6
CONTINUOUS
 62
    7
 10
237.36126141891517
 20
112.42388414041187
 40
0.599986450112503
 50
89.999313905600004
 51
173.570536623
  0
ARC
  8
_0-0_0
  6
CONTINUOUS
 62
    7
 10
245.41459722141519
 20
110.07574003391184
 40
8.9804517142733502
 50
164.39795254009999
 51
176.74218002169996
  0
LINE
  8
_0-0_0
  6
CONTINUOUS
 62
    7
 10
236.44865860341502
 20
75.461650590411863
 11
236.44865860341502
 21
110.58609059041188
  0
ARC
  8
_0-0_0
  6
CONTINUOUS
 62
    7
 10
245.41443290541508
 20
75.971973856411878
 40
8.9802861129499138
 50
183.25770571890001
 51
195.60216171939998
  0
ARC
  8
_0-0_0
  6
CONTINUOUS
 62
    7
 10
237.36126665591507
 20
73.623862900911873
 40
0.5999923102186774
 50
186.4299634678
 51
270.00018600359999
  0
LINE
  8
_0-0_0
  6
CONTINUOUS
 62
    7
 10
237.64865860341507
 20
73.023870590411874
 11
237.36126860341514
 21
73.023870590411874
  0
LINE
  8
_0-0_0
  6
CONTINUOUS
 62
    7
 10
237.64865860341507
 20
89.42387059041188
 11
237.64865860341507
 21
73.023870590411874
  0
LINE
  8
_0-0_0
  6
CONTINUOUS
 62
    7
 10
238.57365860341502
 20
89.023870590411888
 11
237.64865860341507
 21
89.42387059041188
  0
LINE
  8
_0-0_0
  6
CONTINUOUS
 62
    7
 10
242.82365860341508
 20
89.023870590411888
 11
238.57365860341502
 21
89.023870590411888
  0
LINE
  8
_0-0_0
  6
CONTINUOUS
 62
    7
 10
243.748658603415
 20
89.42387059041188
 11
242.82365860341508
 21
89.023870590411888
  0
LINE
  8
_0-0_0
  6
CONTINUOUS
 62
    7
 10
243.748658603415
 20
73.023870590411874
 11
243.748658603415
 21
89.42387059041188
  0
LINE
  8
_0-0_0
  6
CONTINUOUS
 62
    7
 10
244.03604860341494
 20
73.023870590411874
 11
243.748658603415
 21
73.023870590411874
  0
ARC
  8
_0-0_0
  6
CONTINUOUS
 62
    7
 10
244.03605578791513
 20
73.623857040911815
 40
0.5999864501125424
 50
269.99931390559999
 51
353.570536623
  0
ARC
  8
_0-0_0
  6
CONTINUOUS
 62
    7
 10
235.9827199854152
 20
75.972001146911836
 40
8.9804517142729043
 50
344.39795254009993
 51
356.74218002169993
  0
LINE
  8
_0-0_0
  6
CONTINUOUS
 62
    7
 10
244.94865860341505
 20
110.58609059041188
 11
244.94865860341505
 21
75.461650590411863
  0
ARC
  8
_0-0_0
  6
CONTINUOUS
 62
    7
 10
235.98288430141508
 20
110.07576732491187
 40
8.9802861129543494
 50
3.2577057189
 51
15.602161719299999
  0
ARC
  8
_0-0_0
  6
CONTINUOUS
 62
    7
 10
244.03605055141503
 20
112.42387828041188
 40
0.599992310218731
 50
6.4299634678000003
 51
90.00018600360002
  0
LINE
  8
_0-0_0
  6
CONTINUOUS
 62
    7
 10
243.748658603415
 20
113.02387059041187
 11
244.03604860341494
 21
113.02387059041187
  0
LINE
  8
_0-0_0
  6
CONTINUOUS
 62
    7
 10
243.748658603415
 20
90.623870590411854
 11
243.748658603415
 21
113.02387059041187
  0
LINE
  8
_0-0_0
  6
CONTINUOUS
 62
    7
 10
254.74865872291508
 20
73.023870590411874
 11
248.64865872291494
 21
73.023870590411874
  0
LINE
  8
_0-0_0
  6
CONTINUOUS
 62
    7
 10
254.74865872291508
 20
75.023870590411831
 11
248.64865872291494
 21
75.023870590411831
  0
LINE
  8
_0-0_0
  6
CONTINUOUS
 62
    7
 10
249.59865872291501
 20
75.523870590411874
 11
249.59865872291501
 21
75.023870590411831
  0
LINE
  8
_0-0_0
  6
CONTINUOUS
 62
    7
 10
248.64865872291494
 20
86.023870590411775
 11
254.74865872291508
 21
86.023870590411775
  0
LINE
  8
_0-0_0
  6
CONTINUOUS
 62
    7
 10
254.74865872291508
 20
89.023870590411888
 11
253.82365872291515
 21
89.023870590411888
  0
LINE
  8
_0-0_0
  6
CONTINUOUS
 62
    7
 10
249.57365872291518
 20
89.023870590411888
 11
248.64865872291494
 21
89.023870590411888
  0
LINE
  8
_0-0_0
  6
CONTINUOUS
 62
    7
 10
253.79865872291503
 20
75.023870590411831
 11
253.79865872291503
 21
75.523870590411874
  0
LINE
  8
_0-0_0
  6
CONTINUOUS
 62
    7
 10
249.59865872291501
 20
82.02387059041186
 11
249.59865872291501
 21
75.523870590411874
  0
LINE
  8
_0-0_0
  6
CONTINUOUS
 62
    7
 10
249.59865872291501
 20
86.023870590411775
 11
249.59865872291501
 21
82.02387059041186
  0
LINE
  8
_0-0_0
  6
CONTINUOUS
 62
    7
 10
248.64865872291494
 20
75.523870590411874
 11
249.59865872291501
 21
75.523870590411874
  0
LINE
  8
_0-0_0
  6
CONTINUOUS
 62
    7
 10
248.64865872291494
 20
82.02387059041186
 11
249.59865872291501
 21
82.02387059041186
  0
LINE
  8
_0-0_0
  6
CONTINUOUS
 62
    7
 10
253.79865872291503
 20
82.02387059041186
 11
253.79865872291503
 21
75.523870590411874
  0
LINE
  8
_0-0_0
  6
CONTINUOUS
 62
    7
 10
253.79865872291503
 20
86.023870590411775
 11
253.79865872291503
 21
82.02387059041186
  0
LINE
  8
_0-0_0
  6
CONTINUOUS
 62
    7
 10
253.79865872291503
 20
75.523870590411874
 11
254.74865872291508
 21
75.523870590411874
  0
LINE
  8
_0-0_0
  6
CONTINUOUS
 62
    7
 10
253.79865872291503
 20
82.02387059041186
 11
254.74865872291508
 21
82.02387059041186
  0
LINE
  8
_0-0_0
  6
CONTINUOUS
 62
    7
 10
248.09865891041511
 20
73.023870590411874
 11
248.36126872291501
 21
73.023870590411874
  0
LINE
  8
_0-0_0
  6
CONTINUOUS
 62
    7
 10
248.09865891041511
 20
73.023870590411874
 11
248.09865891041511
 21
73.084392899911847
  0
LINE
  8
_0-0_0
  6
CONTINUOUS
 62
    7
 10
255.298658534915
 20
73.023870590411874
 11
255.03604872291504
 21
73.023870590411874
  0
LINE
  8
_0-0_0
  6
CONTINUOUS
 62
    7
 10
255.298658534915
 20
73.023870590411874
 11
255.298658534915
 21
73.084391008411841
  0
LINE
  8
_0-0_0
  6
CONTINUOUS
 62
    7
 10
250.19865872291518
 20
69.52387059041186
 11
250.19865872291518
 21
73.023870590411874
  0
LINE
  8
_0-0_0
  6
CONTINUOUS
 62
    7
 10
253.19865872291515
 20
73.023870590411874
 11
253.19865872291515
 21
69.52387059041186
  0
LINE
  8
_0-0_0
  6
CONTINUOUS
 62
    7
 10
253.74865872291508
 20
91.023870590411775
 11
254.74865872291508
 21
90.623870590411854
  0
LINE
  8
_0-0_0
  6
CONTINUOUS
 62
    7
 10
249.64865872291497
 20
91.023870590411775
 11
253.74865872291508
 21
91.023870590411775
  0
LINE
  8
_0-0_0
  6
CONTINUOUS
 62
    7
 10
248.64865872291494
 20
90.623870590411854
 11
249.64865872291497
 21
91.023870590411775
  0
LINE
  8
_0-0_0
  6
CONTINUOUS
 62
    7
 10
248.64865872291494
 20
113.02387059041187
 11
248.64865872291494
 21
90.623870590411854
  0
LINE
  8
_0-0_0
  6
CONTINUOUS
 62
    7
 10
248.36126872291501
 20
113.02387059041187
 11
248.64865872291494
 21
113.02387059041187
  0
ARC
  8
_0-0_0
  6
CONTINUOUS
 62
    7
 10
248.36126153791502
 20
112.42388414041187
 40
0.5999864501125424
 50
89.999313905600004
 51
173.570536623
  0
ARC
  8
_0-0_0
  6
CONTINUOUS
 62
    7
 10
256.41459734091506
 20
110.07574003391184
 40
8.9804517142738848
 50
164.39795254009999
 51
176.74218002169996
  0
LINE
  8
_0-0_0
  6
CONTINUOUS
 62
    7
 10
247.44865872291512
 20
75.461650590411863
 11
247.44865872291512
 21
110.58609059041188
  0
ARC
  8
_0-0_0
  6
CONTINUOUS
 62
    7
 10
256.41443302491518
 20
75.971973856411878
 40
8.980286112950095
 50
183.25770571890001
 51
195.60216171939998
  0
ARC
  8
_0-0_0
  6
CONTINUOUS
 62
    7
 10
248.36126677491512
 20
73.623862900911873
 40
0.5999923102186774
 50
186.4299634678
 51
270.00018600359999
  0
LINE
  8
_0-0_0
  6
CONTINUOUS
 62
    7
 10
248.64865872291494
 20
73.023870590411874
 11
248.36126872291501
 21
73.023870590411874
  0
LINE
  8
_0-0_0
  6
CONTINUOUS
 62
    7
 10
248.64865872291494
 20
89.42387059041188
 11
248.64865872291494
 21
73.023870590411874
  0
LINE
  8
_0-0_0
  6
CONTINUOUS
 62
    7
 10
249.57365872291518
 20
89.023870590411888
 11
248.64865872291494
 21
89.42387059041188
  0
LINE
  8
_0-0_0
  6
CONTINUOUS
 62
    7
 10
253.82365872291515
 20
89.023870590411888
 11
249.57365872291518
 21
89.023870590411888
  0
LINE
  8
_0-0_0
  6
CONTINUOUS
 62
    7
 10
254.74865872291508
 20
89.42387059041188
 11
253.82365872291515
 21
89.023870590411888
  0
LINE
  8
_0-0_0
  6
CONTINUOUS
 62
    7
 10
254.74865872291508
 20
73.023870590411874
 11
254.74865872291508
 21
89.42387059041188
  0
LINE
  8
_0-0_0
  6
CONTINUOUS
 62
    7
 10
255.03604872291504
 20
73.023870590411874
 11
254.74865872291508
 21
73.023870590411874
  0
ARC
  8
_0-0_0
  6
CONTINUOUS
 62
    7
 10
255.036055907415
 20
73.623857040911815
 40
0.5999864501125069
 50
269.99931390559999
 51
353.570536623
  0
ARC
  8
_0-0_0
  6
CONTINUOUS
 62
    7
 10
246.98272010491507
 20
75.972001146911836
 40
8.9804517142730091
 50
344.39795254009993
 51
356.74218002169993
  0
LINE
  8
_0-0_0
  6
CONTINUOUS
 62
    7
 10
255.94865872291512
 20
110.58609059041188
 11
255.94865872291512
 21
75.461650590411863
  0
ARC
  8
_0-0_0
  6
CONTINUOUS
 62
    7
 10
246.98288442091518
 20
110.07576732491187
 40
8.9802861129543103
 50
3.2577057189
 51
15.602161719299999
  0
ARC
  8
_0-0_0
  6
CONTINUOUS
 62
    7
 10
255.03605067041519
 20
112.42387828041188
 40
0.599992310218695
 50
6.4299634678000003
 51
90.00018600360002
  0
LINE
  8
_0-0_0
  6
CONTINUOUS
 62
    7
 10
254.74865872291508
 20
113.02387059041187
 11
255.03604872291504
 21
113.02387059041187
  0
LINE
  8
_0-0_0
  6
CONTINUOUS
 62
    7
 10
254.74865872291508
 20
90.623870590411854
 11
254.74865872291508
 21
113.02387059041187
  0
LINE
  8
_0-0_0
  6
CONTINUOUS
 62
    7
 10
249.19865872291518
 20
357.02386677591192
 11
254.19865872291518
 21
357.02386677591192
  0
LINE
  8
_0-0_0
  6
CONTINUOUS
 62
    7
 10
249.19865872291518
 20
91.023870590411775
 11
249.19865872291518
 21
357.02386677591192
  0
LINE
  8
_0-0_0
  6
CONTINUOUS
 62
    7
 10
254.19865872291518
 20
91.023870590411775
 11
249.19865872291518
 21
91.023870590411775
  0
LINE
  8
_0-0_0
  6
CONTINUOUS
 62
    7
 10
254.19865872291518
 20
357.02386677591192
 11
254.19865872291518
 21
91.023870590411775
  0
LINE
  8
_0-0_0
  6
CONTINUOUS
 62
    7
 10
238.19865860341508
 20
91.023870590411775
 11
238.19865860341508
 21
368.02387059041194
  0
LINE
  8
_0-0_0
  6
CONTINUOUS
 62
    7
 10
243.19865860341508
 20
91.023870590411775
 11
238.19865860341508
 21
91.023870590411775
  0
LINE
  8
_0-0_0
  6
CONTINUOUS
 62
    7
 10
243.19865860341508
 20
368.02387059041194
 11
243.19865860341508
 21
91.023870590411775
  0
LINE
  8
_0-0_0
  6
CONTINUOUS
 62
    7
 10
238.19865860341508
 20
368.02387059041194
 11
243.19865860341508
 21
368.02387059041194
  0
LINE
  8
_0-0_0
  6
CONTINUOUS
 62
    7
 10
709.64867233641496
 20
73.023870590411874
 11
715.74867233641498
 21
73.023870590411874
  0
LINE
  8
_0-0_0
  6
CONTINUOUS
 62
    7
 10
709.64867233641496
 20
75.023870590411831
 11
715.74867233641498
 21
75.023870590411831
  0
LINE
  8
_0-0_0
  6
CONTINUOUS
 62
    7
 10
714.79867233641493
 20
75.523870590411874
 11
714.79867233641493
 21
75.023870590411831
  0
LINE
  8
_0-0_0
  6
CONTINUOUS
 62
    7
 10
715.74867233641498
 20
86.023870590411775
 11
709.64867233641496
 21
86.023870590411775
  0
LINE
  8
_0-0_0
  6
CONTINUOUS
 62
    7
 10
709.64867233641496
 20
89.023870590411888
 11
710.57367233641502
 21
89.023870590411888
  0
LINE
  8
_0-0_0
  6
CONTINUOUS
 62
    7
 10
714.82367233641514
 20
89.023870590411888
 11
715.74867233641498
 21
89.023870590411888
  0
LINE
  8
_0-0_0
  6
CONTINUOUS
 62
    7
 10
710.59867233641512
 20
75.023870590411831
 11
710.59867233641512
 21
75.523870590411874
  0
LINE
  8
_0-0_0
  6
CONTINUOUS
 62
    7
 10
714.79867233641493
 20
82.02387059041186
 11
714.79867233641493
 21
75.523870590411874
  0
LINE
  8
_0-0_0
  6
CONTINUOUS
 62
    7
 10
714.79867233641493
 20
86.023870590411775
 11
714.79867233641493
 21
82.02387059041186
  0
LINE
  8
_0-0_0
  6
CONTINUOUS
 62
    7
 10
715.74867233641498
 20
82.02387059041186
 11
714.79867233641493
 21
82.02387059041186
  0
LINE
  8
_0-0_0
  6
CONTINUOUS
 62
    7
 10
715.74867233641498
 20
75.523870590411874
 11
714.79867233641493
 21
75.523870590411874
  0
LINE
  8
_0-0_0
  6
CONTINUOUS
 62
    7
 10
710.59867233641512
 20
82.02387059041186
 11
710.59867233641512
 21
75.523870590411874
  0
LINE
  8
_0-0_0
  6
CONTINUOUS
 62
    7
 10
710.59867233641512
 20
86.023870590411775
 11
710.59867233641512
 21
82.02387059041186
  0
LINE
  8
_0-0_0
  6
CONTINUOUS
 62
    7
 10
710.59867233641512
 20
82.02387059041186
 11
709.64867233641496
 21
82.02387059041186
  0
LINE
  8
_0-0_0
  6
CONTINUOUS
 62
    7
 10
710.59867233641512
 20
75.523870590411874
 11
709.64867233641496
 21
75.523870590411874
  0
LINE
  8
_0-0_0
  6
CONTINUOUS
 62
    7
 10
716.2986721489151
 20
73.023870590411874
 11
716.03606233641494
 21
73.023870590411874
  0
LINE
  8
_0-0_0
  6
CONTINUOUS
 62
    7
 10
716.2986721489151
 20
73.023870590411874
 11
716.2986721489151
 21
73.084392899911847
  0
LINE
  8
_0-0_0
  6
CONTINUOUS
 62
    7
 10
709.09867252391507
 20
73.023870590411874
 11
709.36128233641511
 21
73.023870590411874
  0
LINE
  8
_0-0_0
  6
CONTINUOUS
 62
    7
 10
709.09867252391507
 20
73.023870590411874
 11
709.09867252391507
 21
73.084391008411841
  0
LINE
  8
_0-0_0
  6
CONTINUOUS
 62
    7
 10
714.19867233641514
 20
69.52387059041186
 11
714.19867233641514
 21
73.023870590411874
  0
LINE
  8
_0-0_0
  6
CONTINUOUS
 62
    7
 10
711.19867233641502
 20
73.023870590411874
 11
711.19867233641502
 21
69.52387059041186
  0
LINE
  8
_0-0_0
  6
CONTINUOUS
 62
    7
 10
709.64867233641496
 20
90.623870590411854
 11
710.64867233641507
 21
91.023870590411775
  0
LINE
  8
_0-0_0
  6
CONTINUOUS
 62
    7
 10
709.64867233641496
 20
113.02387059041187
 11
709.64867233641496
 21
90.623870590411854
  0
LINE
  8
_0-0_0
  6
CONTINUOUS
 62
    7
 10
709.36128233641511
 20
113.02387059041187
 11
709.64867233641496
 21
113.02387059041187
  0
ARC
  8
_0-0_0
  6
CONTINUOUS
 62
    7
 10
709.36128038841502
 20
112.42387828041188
 40
0.5999923102187745
 50
89.999813996399993
 51
173.57003653220002
  0
ARC
  8
_0-0_0
  6
CONTINUOUS
 62
    7
 10
717.41444663841502
 20
110.07576732491187
 40
8.9802861129500257
 50
164.39783828060001
 51
176.74229428109998
  0
LINE
  8
_0-0_0
  6
CONTINUOUS
 62
    7
 10
708.44867233641502
 20
75.461650590411863
 11
708.44867233641502
 21
110.58609059041188
  0
ARC
  8
_0-0_0
  6
CONTINUOUS
 62
    7
 10
717.41461095441513
 20
75.972001146911836
 40
8.9804517142786703
 50
183.25781997830003
 51
195.6020474599
  0
ARC
  8
_0-0_0
  6
CONTINUOUS
 62
    7
 10
709.36127515191503
 20
73.623857040911815
 40
0.5999864501126349
 50
186.42946337699999
 51
270.0006860944
  0
LINE
  8
_0-0_0
  6
CONTINUOUS
 62
    7
 10
709.64867233641496
 20
73.023870590411874
 11
709.36128233641511
 21
73.023870590411874
  0
LINE
  8
_0-0_0
  6
CONTINUOUS
 62
    7
 10
709.64867233641496
 20
89.42387059041188
 11
709.64867233641496
 21
73.023870590411874
  0
LINE
  8
_0-0_0
  6
CONTINUOUS
 62
    7
 10
710.57367233641502
 20
89.023870590411888
 11
709.64867233641496
 21
89.42387059041188
  0
LINE
  8
_0-0_0
  6
CONTINUOUS
 62
    7
 10
714.82367233641514
 20
89.023870590411888
 11
710.57367233641502
 21
89.023870590411888
  0
LINE
  8
_0-0_0
  6
CONTINUOUS
 62
    7
 10
715.74867233641498
 20
89.42387059041188
 11
714.82367233641514
 21
89.023870590411888
  0
LINE
  8
_0-0_0
  6
CONTINUOUS
 62
    7
 10
715.74867233641498
 20
73.023870590411874
 11
715.74867233641498
 21
89.42387059041188
  0
LINE
  8
_0-0_0
  6
CONTINUOUS
 62
    7
 10
716.03606233641494
 20
73.023870590411874
 11
715.74867233641498
 21
73.023870590411874
  0
ARC
  8
_0-0_0
  6
CONTINUOUS
 62
    7
 10
716.03606428441503
 20
73.623862900911873
 40
0.5999923102187745
 50
269.99981399649999
 51
353.57003653219999
  0
ARC
  8
_0-0_0
  6
CONTINUOUS
 62
    7
 10
707.98289803441502
 20
75.971973856411878
 40
8.9802861129504503
 50
344.39783828060001
 51
356.74229428109998
  0
LINE
  8
_0-0_0
  6
CONTINUOUS
 62
    7
 10
716.94867233641502
 20
110.58609059041188
 11
716.94867233641502
 21
75.461650590411863
  0
ARC
  8
_0-0_0
  6
CONTINUOUS
 62
    7
 10
707.98273371841503
 20
110.07574003391184
 40
8.9804517142779598
 50
3.2578199783000001
 51
15.602047459899999
  0
ARC
  8
_0-0_0
  6
CONTINUOUS
 62
    7
 10
716.03606952091513
 20
112.42388414041187
 40
0.5999864501125815
 50
6.4294633770000011
 51
90.000686094399981
  0
LINE
  8
_0-0_0
  6
CONTINUOUS
 62
    7
 10
715.74867233641498
 20
113.02387059041187
 11
716.03606233641494
 21
113.02387059041187
  0
LINE
  8
_0-0_0
  6
CONTINUOUS
 62
    7
 10
715.74867233641498
 20
90.623870590411854
 11
715.74867233641498
 21
113.02387059041187
  0
LINE
  8
_0-0_0
  6
CONTINUOUS
 62
    7
 10
714.74867233641498
 20
91.023870590411775
 11
715.74867233641498
 21
90.623870590411854
  0
LINE
  8
_0-0_0
  6
CONTINUOUS
 62
    7
 10
710.64867233641507
 20
91.023870590411775
 11
714.74867233641498
 21
91.023870590411775
  0
LINE
  8
_0-0_0
  6
CONTINUOUS
 62
    7
 10
715.19867233641502
 20
368.02387059041194
 11
715.19867233641502
 21
91.023870590411775
  0
LINE
  8
_0-0_0
  6
CONTINUOUS
 62
    7
 10
710.19867233641502
 20
368.02387059041194
 11
715.19867233641502
 21
368.02387059041194
  0
LINE
  8
_0-0_0
  6
CONTINUOUS
 62
    7
 10
710.19867233641502
 20
91.023870590411775
 11
710.19867233641502
 21
368.02387059041194
  0
LINE
  8
_0-0_0
  6
CONTINUOUS
 62
    7
 10
715.19867233641502
 20
91.023870590411775
 11
710.19867233641502
 21
91.023870590411775
  0
LINE
  8
_0-0_0
  6
CONTINUOUS
 62
    7
 10
698.64867221741508
 20
90.623870590411854
 11
699.64867221741496
 21
91.023870590411775
  0
LINE
  8
_0-0_0
  6
CONTINUOUS
 62
    7
 10
698.64867221741508
 20
113.02387059041187
 11
698.64867221741508
 21
90.623870590411854
  0
LINE
  8
_0-0_0
  6
CONTINUOUS
 62
    7
 10
698.361282217415
 20
113.02387059041187
 11
698.64867221741508
 21
113.02387059041187
  0
ARC
  8
_0-0_0
  6
CONTINUOUS
 62
    7
 10
698.36128026941514
 20
112.42387828041188
 40
0.5999923102187719
 50
89.999813996399993
 51
173.57003653220002
  0
ARC
  8
_0-0_0
  6
CONTINUOUS
 62
    7
 10
706.41444651941515
 20
110.07576732491187
 40
8.9802861129494555
 50
164.39783828060001
 51
176.74229428109998
  0
LINE
  8
_0-0_0
  6
CONTINUOUS
 62
    7
 10
697.44867221741503
 20
75.461650590411863
 11
697.44867221741503
 21
110.58609059041188
  0
ARC
  8
_0-0_0
  6
CONTINUOUS
 62
    7
 10
706.41461083541503
 20
75.972001146911836
 40
8.9804517142792388
 50
183.25781997830003
 51
195.6020474599
  0
ARC
  8
_0-0_0
  6
CONTINUOUS
 62
    7
 10
698.36127503241505
 20
73.623857040911815
 40
0.5999864501126349
 50
186.42946337699999
 51
270.0006860944
  0
LINE
  8
_0-0_0
  6
CONTINUOUS
 62
    7
 10
698.64867221741508
 20
73.023870590411874
 11
698.361282217415
 21
73.023870590411874
  0
LINE
  8
_0-0_0
  6
CONTINUOUS
 62
    7
 10
698.64867221741508
 20
89.42387059041188
 11
698.64867221741508
 21
73.023870590411874
  0
LINE
  8
_0-0_0
  6
CONTINUOUS
 62
    7
 10
699.57367221741503
 20
89.023870590411888
 11
698.64867221741508
 21
89.42387059041188
  0
LINE
  8
_0-0_0
  6
CONTINUOUS
 62
    7
 10
703.82367221741503
 20
89.023870590411888
 11
699.57367221741503
 21
89.023870590411888
  0
LINE
  8
_0-0_0
  6
CONTINUOUS
 62
    7
 10
704.7486722174151
 20
89.42387059041188
 11
703.82367221741503
 21
89.023870590411888
  0
LINE
  8
_0-0_0
  6
CONTINUOUS
 62
    7
 10
704.7486722174151
 20
73.023870590411874
 11
704.7486722174151
 21
89.42387059041188
  0
LINE
  8
_0-0_0
  6
CONTINUOUS
 62
    7
 10
705.03606221741506
 20
73.023870590411874
 11
704.7486722174151
 21
73.023870590411874
  0
ARC
  8
_0-0_0
  6
CONTINUOUS
 62
    7
 10
705.03606416491504
 20
73.623862900911873
 40
0.5999923102187745
 50
269.9998139964
 51
353.57003653219999
  0
ARC
  8
_0-0_0
  6
CONTINUOUS
 62
    7
 10
696.98289791541515
 20
75.971973856411878
 40
8.9802861129507345
 50
344.39783828060001
 51
356.74229428109998
  0
LINE
  8
_0-0_0
  6
CONTINUOUS
 62
    7
 10
705.94867221741515
 20
110.58609059041188
 11
705.94867221741515
 21
75.461650590411863
  0
ARC
  8
_0-0_0
  6
CONTINUOUS
 62
    7
 10
696.98273359941504
 20
110.07574003391184
 40
8.9804517142772493
 50
3.2578199783000001
 51
15.602047459899999
  0
ARC
  8
_0-0_0
  6
CONTINUOUS
 62
    7
 10
705.03606940191502
 20
112.42388414041187
 40
0.5999864501125815
 50
6.4294633770000011
 51
90.000686094399981
  0
LINE
  8
_0-0_0
  6
CONTINUOUS
 62
    7
 10
704.7486722174151
 20
113.02387059041187
 11
705.03606221741506
 21
113.02387059041187
  0
LINE
  8
_0-0_0
  6
CONTINUOUS
 62
    7
 10
704.7486722174151
 20
90.623870590411854
 11
704.7486722174151
 21
113.02387059041187
  0
LINE
  8
_0-0_0
  6
CONTINUOUS
 62
    7
 10
703.7486722174151
 20
91.023870590411775
 11
704.7486722174151
 21
90.623870590411854
  0
LINE
  8
_0-0_0
  6
CONTINUOUS
 62
    7
 10
699.64867221741496
 20
91.023870590411775
 11
703.7486722174151
 21
91.023870590411775
  0
LINE
  8
_0-0_0
  6
CONTINUOUS
 62
    7
 10
699.19867221741515
 20
357.02388585041194
 11
704.19867221741515
 21
357.02388585041194
  0
LINE
  8
_0-0_0
  6
CONTINUOUS
 62
    7
 10
699.19867221741515
 20
91.023870590411775
 11
699.19867221741515
 21
357.02388585041194
  0
LINE
  8
_0-0_0
  6
CONTINUOUS
 62
    7
 10
704.19867221741515
 20
91.023870590411775
 11
699.19867221741515
 21
91.023870590411775
  0
LINE
  8
_0-0_0
  6
CONTINUOUS
 62
    7
 10
704.19867221741515
 20
357.02388585041194
 11
704.19867221741515
 21
91.023870590411775
  0
LINE
  8
_0-0_0
  6
CONTINUOUS
 62
    7
 10
698.64867221741508
 20
73.023870590411874
 11
704.7486722174151
 21
73.023870590411874
  0
LINE
  8
_0-0_0
  6
CONTINUOUS
 62
    7
 10
698.64867221741508
 20
75.023870590411831
 11
704.7486722174151
 21
75.023870590411831
  0
LINE
  8
_0-0_0
  6
CONTINUOUS
 62
    7
 10
703.79867221741506
 20
75.523870590411874
 11
703.79867221741506
 21
75.023870590411831
  0
LINE
  8
_0-0_0
  6
CONTINUOUS
 62
    7
 10
704.7486722174151
 20
86.023870590411775
 11
698.64867221741508
 21
86.023870590411775
  0
LINE
  8
_0-0_0
  6
CONTINUOUS
 62
    7
 10
698.64867221741508
 20
89.023870590411888
 11
699.57367221741503
 21
89.023870590411888
  0
LINE
  8
_0-0_0
  6
CONTINUOUS
 62
    7
 10
703.82367221741503
 20
89.023870590411888
 11
704.7486722174151
 21
89.023870590411888
  0
LINE
  8
_0-0_0
  6
CONTINUOUS
 62
    7
 10
699.59867221741501
 20
75.023870590411831
 11
699.59867221741501
 21
75.523870590411874
  0
LINE
  8
_0-0_0
  6
CONTINUOUS
 62
    7
 10
703.79867221741506
 20
82.02387059041186
 11
703.79867221741506
 21
75.523870590411874
  0
LINE
  8
_0-0_0
  6
CONTINUOUS
 62
    7
 10
703.79867221741506
 20
86.023870590411775
 11
703.79867221741506
 21
82.02387059041186
  0
LINE
  8
_0-0_0
  6
CONTINUOUS
 62
    7
 10
704.7486722174151
 20
82.02387059041186
 11
703.79867221741506
 21
82.02387059041186
  0
LINE
  8
_0-0_0
  6
CONTINUOUS
 62
    7
 10
704.7486722174151
 20
75.523870590411874
 11
703.79867221741506
 21
75.523870590411874
  0
LINE
  8
_0-0_0
  6
CONTINUOUS
 62
    7
 10
699.59867221741501
 20
82.02387059041186
 11
699.59867221741501
 21
75.523870590411874
  0
LINE
  8
_0-0_0
  6
CONTINUOUS
 62
    7
 10
699.59867221741501
 20
86.023870590411775
 11
699.59867221741501
 21
82.02387059041186
  0
LINE
  8
_0-0_0
  6
CONTINUOUS
 62
    7
 10
699.59867221741501
 20
82.02387059041186
 11
698.64867221741508
 21
82.02387059041186
  0
LINE
  8
_0-0_0
  6
CONTINUOUS
 62
    7
 10
699.59867221741501
 20
75.523870590411874
 11
698.64867221741508
 21
75.523870590411874
  0
LINE
  8
_0-0_0
  6
CONTINUOUS
 62
    7
 10
705.298672029415
 20
73.023870590411874
 11
705.03606221741506
 21
73.023870590411874
  0
LINE
  8
_0-0_0
  6
CONTINUOUS
 62
    7
 10
705.298672029415
 20
73.023870590411874
 11
705.298672029415
 21
73.084392899911847
  0
LINE
  8
_0-0_0
  6
CONTINUOUS
 62
    7
 10
698.09867240491496
 20
73.023870590411874
 11
698.361282217415
 21
73.023870590411874
  0
LINE
  8
_0-0_0
  6
CONTINUOUS
 62
    7
 10
698.09867240491496
 20
73.023870590411874
 11
698.09867240491496
 21
73.084391008411841
  0
LINE
  8
_0-0_0
  6
CONTINUOUS
 62
    7
 10
703.19867221741503
 20
69.52387059041186
 11
703.19867221741503
 21
73.023870590411874
  0
LINE
  8
_0-0_0
  6
CONTINUOUS
 62
    7
 10
700.19867221741503
 20
73.023870590411874
 11
700.19867221741503
 21
69.52387059041186
  0
LINE
  8
_0-0_0
  6
CONTINUOUS
 62
    7
 10
707.19866589891512
 20
71.223870590411877
 11
707.49866589891507
 21
71.523870590411888
  0
LINE
  8
_0-0_0
  6
CONTINUOUS
 62
    7
 10
706.89866589891505
 20
71.523870590411888
 11
707.19866589891512
 21
71.223870590411877
  0
LINE
  8
_0-0_0
  6
CONTINUOUS
 62
    7
 10
703.69866589891501
 20
71.523870590411888
 11
706.89866589891505
 21
71.523870590411888
  0
LINE
  8
_0-0_0
  6
CONTINUOUS
 62
    7
 10
703.69866589891501
 20
69.52387059041186
 11
703.69866589891501
 21
71.523870590411888
  0
LINE
  8
_0-0_0
  6
CONTINUOUS
 62
    7
 10
699.69866589891512
 20
69.52387059041186
 11
703.69866589891501
 21
69.52387059041186
  0
LINE
  8
_0-0_0
  6
CONTINUOUS
 62
    7
 10
699.69866589891512
 20
71.523870590411888
 11
699.69866589891512
 21
69.52387059041186
  0
LINE
  8
_0-0_0
  6
CONTINUOUS
 62
    7
 10
696.69866589891512
 20
71.523870590411888
 11
699.69866589891512
 21
71.523870590411888
  0
LINE
  8
_0-0_0
  6
CONTINUOUS
 62
    7
 10
696.69866589891512
 20
74.72387059041182
 11
696.69866589891512
 21
71.523870590411888
  0
LINE
  8
_0-0_0
  6
CONTINUOUS
 62
    7
 10
695.49866589891507
 20
74.72387059041182
 11
696.69866589891512
 21
74.72387059041182
  0
LINE
  8
_0-0_0
  6
CONTINUOUS
 62
    7
 10
695.49866589891507
 20
68.023870590411874
 11
695.49866589891507
 21
74.72387059041182
  0
LINE
  8
_0-0_0
  6
CONTINUOUS
 62
    7
 10
696.69866589891512
 20
68.023870590411874
 11
695.49866589891507
 21
68.023870590411874
  0
LINE
  8
_0-0_0
  6
CONTINUOUS
 62
    7
 10
696.69866589891512
 20
70.323870590411843
 11
696.69866589891512
 21
68.023870590411874
  0
LINE
  8
_0-0_0
  6
CONTINUOUS
 62
    7
 10
698.49866589891507
 20
70.323870590411843
 11
696.69866589891512
 21
70.323870590411843
  0
LINE
  8
_0-0_0
  6
CONTINUOUS
 62
    7
 10
698.49866589891507
 20
68.023870590411874
 11
698.49866589891507
 21
70.323870590411843
  0
LINE
  8
_0-0_0
  6
CONTINUOUS
 62
    7
 10
704.89866589891505
 20
68.023870590411874
 11
698.49866589891507
 21
68.023870590411874
  0
LINE
  8
_0-0_0
  6
CONTINUOUS
 62
    7
 10
704.89866589891505
 20
70.323870590411843
 11
704.89866589891505
 21
68.023870590411874
  0
LINE
  8
_0-0_0
  6
CONTINUOUS
 62
    7
 10
709.49866589891496
 20
70.323870590411843
 11
704.89866589891505
 21
70.323870590411843
  0
LINE
  8
_0-0_0
  6
CONTINUOUS
 62
    7
 10
709.49866589891496
 20
68.023870590411874
 11
709.49866589891496
 21
70.323870590411843
  0
LINE
  8
_0-0_0
  6
CONTINUOUS
 62
    7
 10
715.89866589891494
 20
68.023870590411874
 11
709.49866589891496
 21
68.023870590411874
  0
LINE
  8
_0-0_0
  6
CONTINUOUS
 62
    7
 10
715.89866589891494
 20
70.323870590411843
 11
715.89866589891494
 21
68.023870590411874
  0
LINE
  8
_0-0_0
  6
CONTINUOUS
 62
    7
 10
717.69866589891512
 20
70.323870590411843
 11
715.89866589891494
 21
70.323870590411843
  0
LINE
  8
_0-0_0
  6
CONTINUOUS
 62
    7
 10
717.69866589891512
 20
68.023870590411874
 11
717.69866589891512
 21
70.323870590411843
  0
LINE
  8
_0-0_0
  6
CONTINUOUS
 62
    7
 10
718.89866589891516
 20
68.023870590411874
 11
717.69866589891512
 21
68.023870590411874
  0
LINE
  8
_0-0_0
  6
CONTINUOUS
 62
    7
 10
718.89866589891516
 20
74.72387059041182
 11
718.89866589891516
 21
68.023870590411874
  0
LINE
  8
_0-0_0
  6
CONTINUOUS
 62
    7
 10
717.69866589891512
 20
74.72387059041182
 11
718.89866589891516
 21
74.72387059041182
  0
LINE
  8
_0-0_0
  6
CONTINUOUS
 62
    7
 10
717.69866589891512
 20
71.523870590411888
 11
717.69866589891512
 21
74.72387059041182
  0
LINE
  8
_0-0_0
  6
CONTINUOUS
 62
    7
 10
714.69866589891512
 20
71.523870590411888
 11
717.69866589891512
 21
71.523870590411888
  0
LINE
  8
_0-0_0
  6
CONTINUOUS
 62
    7
 10
714.69866589891512
 20
69.52387059041186
 11
714.69866589891512
 21
71.523870590411888
  0
LINE
  8
_0-0_0
  6
CONTINUOUS
 62
    7
 10
710.69866589891501
 20
69.52387059041186
 11
714.69866589891512
 21
69.52387059041186
  0
LINE
  8
_0-0_0
  6
CONTINUOUS
 62
    7
 10
710.69866589891501
 20
71.523870590411888
 11
710.69866589891501
 21
69.52387059041186
  0
LINE
  8
_0-0_0
  6
CONTINUOUS
 62
    7
 10
707.49866589891507
 20
71.523870590411888
 11
710.69866589891501
 21
71.523870590411888
  0
LINE
  8
_0-0_0
  6
CONTINUOUS
 62
    7
 10
249.19867221741498
 20
362.02388585041194
 11
704.19867221741515
 21
362.02388585041194
  0
LINE
  8
_0-0_0
  6
CONTINUOUS
 62
    7
 10
249.19867221741498
 20
357.02388585041194
 11
249.19867221741498
 21
362.02388585041194
  0
LINE
  8
_0-0_0
  6
CONTINUOUS
 62
    7
 10
704.19867221741515
 20
357.02388585041194
 11
249.19867221741498
 21
357.02388585041194
  0
LINE
  8
_0-0_0
  6
CONTINUOUS
 62
    7
 10
704.19867221741515
 20
362.02388585041194
 11
704.19867221741515
 21
357.02388585041194
  0
LINE
  8
_0-0_0
  6
CONTINUOUS
 62
    7
 10
238.19865860341508
 20
373.02387059041194
 11
715.19865860341508
 21
373.02387059041194
  0
LINE
  8
_0-0_0
  6
CONTINUOUS
 62
    7
 10
238.19865860341508
 20
368.02387059041194
 11
238.19865860341508
 21
373.02387059041194
  0
LINE
  8
_0-0_0
  6
CONTINUOUS
 62
    7
 10
715.19865860341508
 20
368.02387059041194
 11
238.19865860341508
 21
368.02387059041194
  0
LINE
  8
_0-0_0
  6
CONTINUOUS
 62
    7
 10
715.19865860341508
 20
373.02387059041194
 11
715.19865860341508
 21
368.02387059041194
  0
LINE
  8
_0-0_0
  6
CONTINUOUS
 62
    7
 10
264.19866546991522
 20
68.023870590411874
 11
264.19866546991522
 21
78.023870590411874
  0
LINE
  8
_0-0_0
  6
CONTINUOUS
 62
    7
 10
689.19866546991499
 20
68.023870590411874
 11
264.19866546991522
 21
68.023870590411874
  0
LINE
  8
_0-0_0
  6
CONTINUOUS
 62
    7
 10
689.19866546991499
 20
78.023870590411874
 11
689.19866546991499
 21
68.023870590411874
  0
LINE
  8
_0-0_0
  6
CONTINUOUS
 62
    7
 10
264.19866546991522
 20
78.023870590411874
 11
689.19866546991499
 21
78.023870590411874
  0
LINE
  8
_0-0_0
  6
CONTINUOUS
 62
    7
 10
274.19866546991522
 20
113.02387059041187
 11
679.19866546991499
 21
113.02387059041187
  0
LINE
  8
_0-0_0
  6
CONTINUOUS
 62
    7
 10
689.19866546991499
 20
113.02387059041187
 11
689.19866546991499
 21
78.023870590411874
  0
LINE
  8
_0-0_0
  6
CONTINUOUS
 62
    7
 10
679.19866546991499
 20
113.02387059041187
 11
689.19866546991499
 21
113.02387059041187
  0
LINE
  8
_0-0_0
  6
CONTINUOUS
 62
    7
 10
679.19866546991499
 20
78.023870590411874
 11
679.19866546991499
 21
113.02387059041187
  0
LINE
  8
_0-0_0
  6
CONTINUOUS
 62
    7
 10
689.19866546991499
 20
78.023870590411874
 11
679.19866546991499
 21
78.023870590411874
  0
LINE
  8
_0-0_0
  6
CONTINUOUS
 62
    7
 10
264.19866546991522
 20
78.023870590411874
 11
264.19866546991522
 21
113.02387059041187
  0
LINE
  8
_0-0_0
  6
CONTINUOUS
 62
    7
 10
274.19866546991522
 20
78.023870590411874
 11
264.19866546991522
 21
78.023870590411874
  0
LINE
  8
_0-0_0
  6
CONTINUOUS
 62
    7
 10
274.19866546991522
 20
113.02387059041187
 11
274.19866546991522
 21
78.023870590411874
  0
LINE
  8
_0-0_0
  6
CONTINUOUS
 62
    7
 10
264.19866546991522
 20
113.02387059041187
 11
274.19866546991522
 21
113.02387059041187
  0
ARC
  8
_0-0_0
  6
CONTINUOUS
 62
    7
 10
992.26051902791505
 20
189.25282680391183
 40
157.0210781560375
 50
208.67010306759999
 51
331.3298969324
  0
LINE
  8
_0-0_0
  6
CONTINUOUS
 62
    7
 10
854.49075502241498
 20
113.91949347091184
 11
1130.0302830334153
 21
113.91949347091184
  0
LINE
  8
_0-0_0
  6
CONTINUOUS
 62
    7
 10
1008.593852758415
 20
130.58616013741186
 11
1028.927186091915
 21
130.58616013741186
  0
LINE
  8
_0-0_0
  6
CONTINUOUS
 62
    7
 10
1008.593852758415
 20
137.25282680391188
 11
1028.927186091915
 21
137.25282680391188
  0
LINE
  8
_0-0_0
  6
CONTINUOUS
 62
    7
 10
1025.7605194254151
 20
138.91949347091184
 11
1025.7605194254151
 21
137.25282680391188
  0
LINE
  8
_0-0_0
  6
CONTINUOUS
 62
    7
 10
1028.927186091915
 20
173.91949347091184
 11
1008.593852758415
 21
173.91949347091184
  0
LINE
  8
_0-0_0
  6
CONTINUOUS
 62
    7
 10
1008.593852758415
 20
183.9194934709119
 11
1011.6771860919151
 21
183.9194934709119
  0
LINE
  8
_0-0_0
  6
CONTINUOUS
 62
    7
 10
1025.843852758415
 20
183.9194934709119
 11
1028.927186091915
 21
183.9194934709119
  0
LINE
  8
_0-0_0
  6
CONTINUOUS
 62
    7
 10
1011.760519425415
 20
137.25282680391188
 11
1011.760519425415
 21
138.91949347091184
  0
LINE
  8
_0-0_0
  6
CONTINUOUS
 62
    7
 10
1025.7605194254151
 20
160.58616013741186
 11
1025.7605194254151
 21
138.91949347091184
  0
LINE
  8
_0-0_0
  6
CONTINUOUS
 62
    7
 10
1025.7605194254151
 20
173.91949347091184
 11
1025.7605194254151
 21
160.58616013741186
  0
LINE
  8
_0-0_0
  6
CONTINUOUS
 62
    7
 10
1028.927186091915
 20
160.58616013741186
 11
1025.7605194254151
 21
160.58616013741186
  0
LINE
  8
_0-0_0
  6
CONTINUOUS
 62
    7
 10
1028.927186091915
 20
138.91949347091184
 11
1025.7605194254151
 21
138.91949347091184
  0
LINE
  8
_0-0_0
  6
CONTINUOUS
 62
    7
 10
1011.760519425415
 20
160.58616013741186
 11
1011.760519425415
 21
138.91949347091184
  0
LINE
  8
_0-0_0
  6
CONTINUOUS
 62
    7
 10
1011.760519425415
 20
173.91949347091184
 11
1011.760519425415
 21
160.58616013741186
  0
LINE
  8
_0-0_0
  6
CONTINUOUS
 62
    7
 10
1011.760519425415
 20
160.58616013741186
 11
1008.593852758415
 21
160.58616013741186
  0
LINE
  8
_0-0_0
  6
CONTINUOUS
 62
    7
 10
1011.760519425415
 20
138.91949347091184
 11
1008.593852758415
 21
138.91949347091184
  0
LINE
  8
_0-0_0
  6
CONTINUOUS
 62
    7
 10
1030.7605187999151
 20
130.58616013741186
 11
1029.8851527584151
 21
130.58616013741186
  0
LINE
  8
_0-0_0
  6
CONTINUOUS
 62
    7
 10
1030.7605187999151
 20
130.58616013741186
 11
1030.7605187999151
 21
130.78790116891184
  0
LINE
  8
_0-0_0
  6
CONTINUOUS
 62
    7
 10
1006.7605200504151
 20
130.58616013741186
 11
1007.635886091915
 21
130.58616013741186
  0
LINE
  8
_0-0_0
  6
CONTINUOUS
 62
    7
 10
1006.7605200504151
 20
130.58616013741186
 11
1006.7605200504151
 21
130.78789486291185
  0
LINE
  8
_0-0_0
  6
CONTINUOUS
 62
    7
 10
1023.760519425415
 20
118.91949347091184
 11
1023.760519425415
 21
130.58616013741186
  0
LINE
  8
_0-0_0
  6
CONTINUOUS
 62
    7
 10
1013.760519425415
 20
130.58616013741186
 11
1013.760519425415
 21
118.91949347091184
  0
LINE
  8
_0-0_0
  6
CONTINUOUS
 62
    7
 10
1008.593852758415
 20
189.25282680391183
 11
1011.927186091915
 21
190.58616013741192
  0
LINE
  8
_0-0_0
  6
CONTINUOUS
 62
    7
 10
1008.593852758415
 20
263.9194934709119
 11
1008.593852758415
 21
189.25282680391183
  0
LINE
  8
_0-0_0
  6
CONTINUOUS
 62
    7
 10
1007.635886091915
 20
263.9194934709119
 11
1008.593852758415
 21
263.9194934709119
  0
ARC
  8
_0-0_0
  6
CONTINUOUS
 62
    7
 10
1007.635879599415
 20
261.91951910341185
 40
1.9999743673958052
 50
89.999813996399993
 51
173.57003653220002
  0
ARC
  8
_0-0_0
  6
CONTINUOUS
 62
    7
 10
1034.479767098915
 20
254.09248258441192
 40
29.934287043183331
 50
164.39783828069997
 51
176.74229428109998
  0
LINE
  8
_0-0_0
  6
CONTINUOUS
 62
    7
 10
1004.593852758415
 20
138.71209347091181
 11
1004.593852758415
 21
255.7935601374119
  0
ARC
  8
_0-0_0
  6
CONTINUOUS
 62
    7
 10
1034.480314818915
 20
140.41326199241183
 40
29.934839047574648
 50
183.25781997830003
 51
195.6020474599
  0
ARC
  8
_0-0_0
  6
CONTINUOUS
 62
    7
 10
1007.635862143415
 20
132.5861149709118
 40
1.9999548337083798
 50
186.42946337699999
 51
270.0006860944
  0
LINE
  8
_0-0_0
  6
CONTINUOUS
 62
    7
 10
1008.593852758415
 20
130.58616013741186
 11
1007.635886091915
 21
130.58616013741186
  0
LINE
  8
_0-0_0
  6
CONTINUOUS
 62
    7
 10
1008.593852758415
 20
185.25282680391185
 11
1008.593852758415
 21
130.58616013741186
  0
LINE
  8
_0-0_0
  6
CONTINUOUS
 62
    7
 10
1011.6771860919151
 20
183.9194934709119
 11
1008.593852758415
 21
185.25282680391185
  0
LINE
  8
_0-0_0
  6
CONTINUOUS
 62
    7
 10
1025.843852758415
 20
183.9194934709119
 11
1011.6771860919151
 21
183.9194934709119
  0
LINE
  8
_0-0_0
  6
CONTINUOUS
 62
    7
 10
1028.927186091915
 20
185.25282680391185
 11
1025.843852758415
 21
183.9194934709119
  0
LINE
  8
_0-0_0
  6
CONTINUOUS
 62
    7
 10
1028.927186091915
 20
130.58616013741186
 11
1028.927186091915
 21
185.25282680391185
  0
LINE
  8
_0-0_0
  6
CONTINUOUS
 62
    7
 10
1029.8851527584151
 20
130.58616013741186
 11
1028.927186091915
 21
130.58616013741186
  0
ARC
  8
_0-0_0
  6
CONTINUOUS
 62
    7
 10
1029.8851592514149
 20
132.58613450491182
 40
1.9999743673956447
 50
269.9998139964
 51
353.57003653219999
  0
ARC
  8
_0-0_0
  6
CONTINUOUS
 62
    7
 10
1003.0412717519151
 20
140.4131710239119
 40
29.934287043170741
 50
344.39783828060001
 51
356.74229428109998
  0
LINE
  8
_0-0_0
  6
CONTINUOUS
 62
    7
 10
1032.927186091915
 20
255.7935601374119
 11
1032.927186091915
 21
138.71209347091181
  0
ARC
  8
_0-0_0
  6
CONTINUOUS
 62
    7
 10
1003.0407240319151
 20
254.09239161591187
 40
29.93483904757025
 50
3.2578199783000001
 51
15.602047459899999
  0
ARC
  8
_0-0_0
  6
CONTINUOUS
 62
    7
 10
1029.8851767074149
 20
261.9195386374119
 40
1.999954833708522
 50
6.4294633770000011
 51
90.000686094399981
  0
LINE
  8
_0-0_0
  6
CONTINUOUS
 62
    7
 10
1028.927186091915
 20
263.9194934709119
 11
1029.8851527584151
 21
263.9194934709119
  0
LINE
  8
_0-0_0
  6
CONTINUOUS
 62
    7
 10
1028.927186091915
 20
189.25282680391183
 11
1028.927186091915
 21
263.9194934709119
  0
LINE
  8
_0-0_0
  6
CONTINUOUS
 62
    7
 10
1025.593852758415
 20
190.58616013741192
 11
1028.927186091915
 21
189.25282680391183
  0
LINE
  8
_0-0_0
  6
CONTINUOUS
 62
    7
 10
1011.927186091915
 20
190.58616013741192
 11
1025.593852758415
 21
190.58616013741192
  0
ARC
  8
_0-0_0
  6
CONTINUOUS
 62
    7
 10
992.26051902791505
 20
189.25282680391183
 40
157.02107815603318
 50
77.182955101600001
 51
83.356245134900007
  0
LINE
  8
_0-0_0
  6
CONTINUOUS
 62
    7
 10
1027.093852758415
 20
342.36147400091192
 11
1027.093852758415
 21
190.58616013741192
  0
LINE
  8
_0-0_0
  6
CONTINUOUS
 62
    7
 10
1010.4271860919151
 20
190.58616013741192
 11
1010.4271860919151
 21
345.21946167541193
  0
LINE
  8
_0-0_0
  6
CONTINUOUS
 62
    7
 10
1027.093852758415
 20
190.58616013741192
 11
1010.4271860919151
 21
190.58616013741192
  0
LINE
  8
_0-0_0
  6
CONTINUOUS
 62
    7
 10
971.92718569441512
 20
189.25282680391183
 11
975.26051902791505
 21
190.58616013741192
  0
LINE
  8
_0-0_0
  6
CONTINUOUS
 62
    7
 10
971.92718569441512
 20
263.9194934709119
 11
971.92718569441512
 21
189.25282680391183
  0
LINE
  8
_0-0_0
  6
CONTINUOUS
 62
    7
 10
970.96921902791507
 20
263.9194934709119
 11
971.92718569441512
 21
263.9194934709119
  0
ARC
  8
_0-0_0
  6
CONTINUOUS
 62
    7
 10
970.96921253541506
 20
261.91951910341185
 40
1.9999743673958052
 50
89.999813996399993
 51
173.57003653220002
  0
ARC
  8
_0-0_0
  6
CONTINUOUS
 62
    7
 10
997.81310003491512
 20
254.09248258441192
 40
29.934287043182621
 50
164.39783828069997
 51
176.74229428109998
  0
LINE
  8
_0-0_0
  6
CONTINUOUS
 62
    7
 10
967.92718569441501
 20
138.71209347091181
 11
967.92718569441501
 21
255.7935601374119
  0
ARC
  8
_0-0_0
  6
CONTINUOUS
 62
    7
 10
997.813647754415
 20
140.41326199241183
 40
29.934839047581419
 50
183.25781997830003
 51
195.6020474599
  0
ARC
  8
_0-0_0
  6
CONTINUOUS
 62
    7
 10
970.96919507941504
 20
132.5861149709118
 40
1.9999548337083798
 50
186.42946337699999
 51
270.0006860944
  0
LINE
  8
_0-0_0
  6
CONTINUOUS
 62
    7
 10
971.92718569441512
 20
130.58616013741186
 11
970.96921902791507
 21
130.58616013741186
  0
LINE
  8
_0-0_0
  6
CONTINUOUS
 62
    7
 10
971.92718569441512
 20
185.25282680391185
 11
971.92718569441512
 21
130.58616013741186
  0
LINE
  8
_0-0_0
  6
CONTINUOUS
 62
    7
 10
975.01051902791505
 20
183.9194934709119
 11
971.92718569441512
 21
185.25282680391185
  0
LINE
  8
_0-0_0
  6
CONTINUOUS
 62
    7
 10
989.17718569441501
 20
183.9194934709119
 11
975.01051902791505
 21
183.9194934709119
  0
LINE
  8
_0-0_0
  6
CONTINUOUS
 62
    7
 10
992.26051902791505
 20
185.25282680391185
 11
989.17718569441501
 21
183.9194934709119
  0
LINE
  8
_0-0_0
  6
CONTINUOUS
 62
    7
 10
992.26051902791505
 20
130.58616013741186
 11
992.26051902791505
 21
185.25282680391185
  0
LINE
  8
_0-0_0
  6
CONTINUOUS
 62
    7
 10
993.21848569441499
 20
130.58616013741186
 11
992.26051902791505
 21
130.58616013741186
  0
ARC
  8
_0-0_0
  6
CONTINUOUS
 62
    7
 10
993.21849218741499
 20
132.58613450491182
 40
1.9999743673956285
 50
269.9998139964
 51
353.57003653219999
  0
ARC
  8
_0-0_0
  6
CONTINUOUS
 62
    7
 10
966.37460468791505
 20
140.4131710239119
 40
29.934287043182621
 50
344.3978382807
 51
356.74229428109998
  0
LINE
  8
_0-0_0
  6
CONTINUOUS
 62
    7
 10
996.26051902791505
 20
255.7935601374119
 11
996.26051902791505
 21
138.71209347091181
  0
ARC
  8
_0-0_0
  6
CONTINUOUS
 62
    7
 10
966.37405696791506
 20
254.09239161591187
 40
29.934839047570676
 50
3.2578199783000001
 51
15.602047459899999
  0
ARC
  8
_0-0_0
  6
CONTINUOUS
 62
    7
 10
993.21850964341501
 20
261.9195386374119
 40
1.999954833708522
 50
6.4294633770000011
 51
90.000686094399981
  0
LINE
  8
_0-0_0
  6
CONTINUOUS
 62
    7
 10
992.26051902791505
 20
263.9194934709119
 11
993.21848569441499
 21
263.9194934709119
  0
LINE
  8
_0-0_0
  6
CONTINUOUS
 62
    7
 10
992.26051902791505
 20
189.25282680391183
 11
992.26051902791505
 21
263.9194934709119
  0
LINE
  8
_0-0_0
  6
CONTINUOUS
 62
    7
 10
988.92718569441501
 20
190.58616013741192
 11
992.26051902791505
 21
189.25282680391183
  0
LINE
  8
_0-0_0
  6
CONTINUOUS
 62
    7
 10
975.26051902791505
 20
190.58616013741192
 11
988.92718569441501
 21
190.58616013741192
  0
ARC
  8
_0-0_0
  6
CONTINUOUS
 62
    7
 10
992.26051902791505
 20
189.25282680391183
 40
157.02107815604853
 50
90.668984383600005
 51
96.766223127100005
  0
LINE
  8
_0-0_0
  6
CONTINUOUS
 62
    7
 10
990.42718569441501
 20
346.2632018569119
 11
990.42718569441501
 21
190.58616013741192
  0
LINE
  8
_0-0_0
  6
CONTINUOUS
 62
    7
 10
973.76051902791505
 20
190.58616013741192
 11
973.76051902791505
 21
345.18027462941188
  0
LINE
  8
_0-0_0
  6
CONTINUOUS
 62
    7
 10
990.42718569441501
 20
190.58616013741192
 11
973.76051902791505
 21
190.58616013741192
  0
LINE
  8
_0-0_0
  6
CONTINUOUS
 62
    7
 10
971.92718569441512
 20
130.58616013741186
 11
992.26051902791505
 21
130.58616013741186
  0
LINE
  8
_0-0_0
  6
CONTINUOUS
 62
    7
 10
971.92718569441512
 20
137.25282680441182
 11
992.26051902791505
 21
137.25282680441182
  0
LINE
  8
_0-0_0
  6
CONTINUOUS
 62
    7
 10
989.09385236141497
 20
138.91949347091184
 11
989.09385236141497
 21
137.25282680441182
  0
LINE
  8
_0-0_0
  6
CONTINUOUS
 62
    7
 10
992.26051902791505
 20
173.91949347091184
 11
971.92718569441512
 21
173.91949347091184
  0
LINE
  8
_0-0_0
  6
CONTINUOUS
 62
    7
 10
971.92718569441512
 20
183.9194934709119
 11
975.01051902791505
 21
183.9194934709119
  0
LINE
  8
_0-0_0
  6
CONTINUOUS
 62
    7
 10
989.17718569441501
 20
183.9194934709119
 11
992.26051902791505
 21
183.9194934709119
  0
LINE
  8
_0-0_0
  6
CONTINUOUS
 62
    7
 10
975.09385236141508
 20
137.25282680391188
 11
975.09385236141508
 21
138.91949347091184
  0
LINE
  8
_0-0_0
  6
CONTINUOUS
 62
    7
 10
989.09385236141497
 20
160.58616013741186
 11
989.09385236141497
 21
138.91949347091184
  0
LINE
  8
_0-0_0
  6
CONTINUOUS
 62
    7
 10
989.09385236141497
 20
173.91949347091184
 11
989.09385236141497
 21
160.58616013741186
  0
LINE
  8
_0-0_0
  6
CONTINUOUS
 62
    7
 10
992.26051902791505
 20
160.58616013741186
 11
989.09385236141497
 21
160.58616013741186
  0
LINE
  8
_0-0_0
  6
CONTINUOUS
 62
    7
 10
992.26051902791505
 20
138.91949347091184
 11
989.09385236141497
 21
138.91949347091184
  0
LINE
  8
_0-0_0
  6
CONTINUOUS
 62
    7
 10
975.09385236141508
 20
160.58616013741186
 11
975.09385236141508
 21
138.91949347091184
  0
LINE
  8
_0-0_0
  6
CONTINUOUS
 62
    7
 10
975.09385236141508
 20
173.91949347091184
 11
975.09385236141508
 21
160.58616013741186
  0
LINE
  8
_0-0_0
  6
CONTINUOUS
 62
    7
 10
975.09385236141508
 20
160.58616013741186
 11
971.92718569441512
 21
160.58616013741186
  0
LINE
  8
_0-0_0
  6
CONTINUOUS
 62
    7
 10
975.09385236141508
 20
138.91949347091184
 11
971.92718569441512
 21
138.91949347091184
  0
LINE
  8
_0-0_0
  6
CONTINUOUS
 62
    7
 10
994.09385173591499
 20
130.58616013741186
 11
993.21848569441499
 21
130.58616013741186
  0
LINE
  8
_0-0_0
  6
CONTINUOUS
 62
    7
 10
994.09385173591499
 20
130.58616013741186
 11
994.09385173591499
 21
130.78790116891184
  0
LINE
  8
_0-0_0
  6
CONTINUOUS
 62
    7
 10
970.09385298641507
 20
130.58616013741186
 11
970.96921902791507
 21
130.58616013741186
  0
LINE
  8
_0-0_0
  6
CONTINUOUS
 62
    7
 10
970.09385298641507
 20
130.58616013741186
 11
970.09385298641507
 21
130.78789486291185
  0
LINE
  8
_0-0_0
  6
CONTINUOUS
 62
    7
 10
987.09385236141497
 20
118.91949347091184
 11
987.09385236141497
 21
130.58616013741186
  0
LINE
  8
_0-0_0
  6
CONTINUOUS
 62
    7
 10
977.09385236141497
 20
130.58616013741186
 11
977.09385236141497
 21
118.91949347091184
  0
LINE
  8
_0-0_0
  6
CONTINUOUS
 62
    7
 10
1000.427164634415
 20
124.58616013741185
 11
1001.427164634415
 21
125.58616013741186
  0
LINE
  8
_0-0_0
  6
CONTINUOUS
 62
    7
 10
999.42716463441502
 20
125.58616013741186
 11
1000.427164634415
 21
124.58616013741185
  0
LINE
  8
_0-0_0
  6
CONTINUOUS
 62
    7
 10
988.76049796741517
 20
125.58616013741186
 11
999.42716463441502
 21
125.58616013741186
  0
LINE
  8
_0-0_0
  6
CONTINUOUS
 62
    7
 10
988.76049796741517
 20
118.91949347091184
 11
988.76049796741517
 21
125.58616013741186
  0
LINE
  8
_0-0_0
  6
CONTINUOUS
 62
    7
 10
975.42716463441502
 20
118.91949347091184
 11
988.76049796741517
 21
118.91949347091184
  0
LINE
  8
_0-0_0
  6
CONTINUOUS
 62
    7
 10
975.42716463441502
 20
125.58616013741186
 11
975.42716463441502
 21
118.91949347091184
  0
LINE
  8
_0-0_0
  6
CONTINUOUS
 62
    7
 10
965.42716463441502
 20
125.58616013741186
 11
975.42716463441502
 21
125.58616013741186
  0
LINE
  8
_0-0_0
  6
CONTINUOUS
 62
    7
 10
965.42716463441502
 20
136.25282680441188
 11
965.42716463441502
 21
125.58616013741186
  0
LINE
  8
_0-0_0
  6
CONTINUOUS
 62
    7
 10
961.42716463441502
 20
136.25282680441188
 11
965.42716463441502
 21
136.25282680441188
  0
LINE
  8
_0-0_0
  6
CONTINUOUS
 62
    7
 10
961.42716463441502
 20
113.91949347091184
 11
961.42716463441502
 21
136.25282680441188
  0
LINE
  8
_0-0_0
  6
CONTINUOUS
 62
    7
 10
965.42716463441502
 20
113.91949347091184
 11
961.42716463441502
 21
113.91949347091184
  0
LINE
  8
_0-0_0
  6
CONTINUOUS
 62
    7
 10
965.42716463441502
 20
121.5861601374118
 11
965.42716463441502
 21
113.91949347091184
  0
LINE
  8
_0-0_0
  6
CONTINUOUS
 62
    7
 10
971.42716463441502
 20
121.5861601374118
 11
965.42716463441502
 21
121.5861601374118
  0
LINE
  8
_0-0_0
  6
CONTINUOUS
 62
    7
 10
971.42716463441502
 20
113.91949347091184
 11
971.42716463441502
 21
121.5861601374118
  0
LINE
  8
_0-0_0
  6
CONTINUOUS
 62
    7
 10
992.76049796741506
 20
113.91949347091184
 11
971.42716463441502
 21
113.91949347091184
  0
LINE
  8
_0-0_0
  6
CONTINUOUS
 62
    7
 10
992.76049796741506
 20
121.5861601374118
 11
992.76049796741506
 21
113.91949347091184
  0
LINE
  8
_0-0_0
  6
CONTINUOUS
 62
    7
 10
1008.093831300915
 20
121.5861601374118
 11
992.76049796741506
 21
121.5861601374118
  0
LINE
  8
_0-0_0
  6
CONTINUOUS
 62
    7
 10
1008.093831300915
 20
113.91949347091184
 11
1008.093831300915
 21
121.5861601374118
  0
LINE
  8
_0-0_0
  6
CONTINUOUS
 62
    7
 10
1029.427164634415
 20
113.91949347091184
 11
1008.093831300915
 21
113.91949347091184
  0
LINE
  8
_0-0_0
  6
CONTINUOUS
 62
    7
 10
1029.427164634415
 20
121.5861601374118
 11
1029.427164634415
 21
113.91949347091184
  0
LINE
  8
_0-0_0
  6
CONTINUOUS
 62
    7
 10
1035.427164634415
 20
121.5861601374118
 11
1029.427164634415
 21
121.5861601374118
  0
LINE
  8
_0-0_0
  6
CONTINUOUS
 62
    7
 10
1035.427164634415
 20
113.91949347091184
 11
1035.427164634415
 21
121.5861601374118
  0
LINE
  8
_0-0_0
  6
CONTINUOUS
 62
    7
 10
1039.427164634415
 20
113.91949347091184
 11
1035.427164634415
 21
113.91949347091184
  0
LINE
  8
_0-0_0
  6
CONTINUOUS
 62
    7
 10
1039.427164634415
 20
136.25282680441188
 11
1039.427164634415
 21
113.91949347091184
  0
LINE
  8
_0-0_0
  6
CONTINUOUS
 62
    7
 10
1035.427164634415
 20
136.25282680441188
 11
1039.427164634415
 21
136.25282680441188
  0
LINE
  8
_0-0_0
  6
CONTINUOUS
 62
    7
 10
1035.427164634415
 20
125.58616013741186
 11
1035.427164634415
 21
136.25282680441188
  0
LINE
  8
_0-0_0
  6
CONTINUOUS
 62
    7
 10
1025.427164634415
 20
125.58616013741186
 11
1035.427164634415
 21
125.58616013741186
  0
LINE
  8
_0-0_0
  6
CONTINUOUS
 62
    7
 10
1025.427164634415
 20
118.91949347091184
 11
1025.427164634415
 21
125.58616013741186
  0
LINE
  8
_0-0_0
  6
CONTINUOUS
 62
    7
 10
1012.093831300915
 20
118.91949347091184
 11
1025.427164634415
 21
118.91949347091184
  0
LINE
  8
_0-0_0
  6
CONTINUOUS
 62
    7
 10
1012.093831300915
 20
125.58616013741186
 11
1012.093831300915
 21
118.91949347091184
  0
LINE
  8
_0-0_0
  6
CONTINUOUS
 62
    7
 10
1001.427164634415
 20
125.58616013741186
 11
1012.093831300915
 21
125.58616013741186
  0
ARC
  8
_0-0_0
  6
CONTINUOUS
 62
    7
 10
992.26051902791505
 20
189.25282680391183
 40
157.02107815604233
 50
195.51436779800002
 51
208.67010306760002
  0
LINE
  8
_0-0_0
  6
CONTINUOUS
 62
    7
 10
840.96075370991502
 20
147.25282680441182
 11
940.42716320391502
 21
147.25282680441182
  0
LINE
  8
_0-0_0
  6
CONTINUOUS
 62
    7
 10
940.42716320391502
 20
113.91949347091184
 11
854.49075502241498
 21
113.91949347091184
  0
LINE
  8
_0-0_0
  6
CONTINUOUS
 62
    7
 10
940.42716320391502
 20
147.25282680441182
 11
940.42716320391502
 21
113.91949347091184
  0
LINE
  8
_0-0_0
  6
CONTINUOUS
 62
    7
 10
854.1283074544151
 20
263.9194934709119
 11
907.0938298704151
 21
263.9194934709119
  0
LINE
  8
_0-0_0
  6
CONTINUOUS
 62
    7
 10
940.42716320391502
 20
263.9194934709119
 11
940.42716320391502
 21
147.25282680441182
  0
LINE
  8
_0-0_0
  6
CONTINUOUS
 62
    7
 10
907.0938298704151
 20
263.9194934709119
 11
940.42716320391502
 21
263.9194934709119
  0
LINE
  8
_0-0_0
  6
CONTINUOUS
 62
    7
 10
907.0938298704151
 20
147.25282680441182
 11
907.0938298704151
 21
263.9194934709119
  0
LINE
  8
_0-0_0
  6
CONTINUOUS
 62
    7
 10
940.42716320391502
 20
147.25282680441182
 11
907.0938298704151
 21
147.25282680441182
  0
CIRCLE
  8
_0-0_0
  6
CONTINUOUS
 62
    7
 10
704.7486722174151
 20
90.623870590411854
 40
47.106323446811302
  0
LINE
  8
_0-0_0
  6
CONTINUOUS
 62
    7
 10
740.99598844391505
 20
120.70937831491185
 11
835.55441756300399
 21
199.19348819807373
  0
ARC
  8
_0-0_0
  6
CONTINUOUS
 62
    7
 10
992.26051902791505
 20
189.25282680391183
 40
157.0210781560375
 50
331.32989693248998
 51
195.51436779799999
  0
ENDSEC
  0
EOF
